Brown Sugar Intro (Acordes)

The Rolling Stones

Subida por carlosproagui

Compartir


Imprimir FAQ
+A
-A

Texto

Desplazamiento

Transportador

Color de Fondo

Archivos

-A
+A
(Jagger/Richards)

Tabber: Mord_Wraith
E-mail: *
Date: 12/5/2004

Tuning (low to high): DGDGBD

Intro:

D|-----------------------|
B|---13-12---5-5-6-6-5---|
G|---12-12---5-5-5-5-5---| play 4 times
D|---14-12---5-5-7-7-5---|
G|---12-12---5-5-5-5-5---|
D|-----------------------|

D|-------------------------------------------------------|
B|---8-8-8--8--8-8---5-6-6-6-5---1-1-1-1-3-3---6-6-6-5---|
G|---8-8-8-10-10p8---5-5-5-5-5---1-3-1-3-5p3---5-5-5-5---| then play
D|---8-8-8--8--8-8---5-7-7-7-5---1-1-1-1-3-3---7-7-7-5---| below
G|---8-8-8--8--8-8---5-5-5-5-5---1-1-1-1-3-3---5-5-5-5---
D|-------------------------------------------------------|

D|-------------------------------------------------------|
B|---8-8-8--8--8-8---5-6-6-6-5---1-1-1-1-4-3---6-6-6-5---|
G|---8-8-8-10-10p8---5-5-5-5-5---1-3-1-3-3-3---5-5-5-5---|
D|---8-8-8--8--8-8---5-7-7-7-5---1-1-1-1-5-3---7-7-7-5---|
G|---8-8-8--8--8-8---5-5-5-5-5---1-1-1-1-3-3---5-5-5-5---|
D|-------------------------------------------------------|
                                         ^ difference

---

I've seen nothing but incorrect tabs for the intro of this song all over the internet.
You won't be disappointed with this.

Video Clip de Brown Sugar Intro


ACORDES PARA GUITARRA

PIANO UKELELE


TOP 20: Las más tocadas de The Rolling Stones


Acordes

Cerrar

11.53

x

218