Carol
The Rolling Stones
Acordes

Subida por Grober
Álbum: The Rolling Stones ( 1964)


Más Versiones
Ver. 2 Ver. 3 Ver. 4 Ver. 5 Ver. 6
+A
-A
E |--------/6-6-6-6-6------------------------6-6-6-6-6-6-6-6-6-6-----|
B |----6-8-/6-6-6-6-6-8---6-6-6-6-6-6----6-8-6-6-6-6-6-6-6-6-6-6-----|
G |-/7----------------8-7---6-6-6-6-6-/7-------------------------8b--|
D |------------------------------------------------------------------|
A |------------------------------------------------------------------|
E |------------------------------------------------------------------|

E |----------------------|
B |----------------------|
G |----------------------|
D |----------------------|
A |-8-8-10-10-8-8-10-10--|
E |-6-6-6--6--6-6-6--6---|

Eb
Oh, Carol
Bb
Don't let him steal your heart away
F
I'm gonna learn to dance
Eb Bb
If it takes me all night and day

Bb
Climb into my machine so we can groove on out
I know some swinging little joint where we can jump and shout
Eb
It's not too far back on the highway not so long a ride
Bb
You park the car out in the open you can walk inside
F
A little cutie takes your hat and you can thank her ma'am
Bb
'Cause every time you make the scene you find the joint is jammed

(intro)

Oh, Carol
Don't let him steal your heart away
I'm gonna learn to dance
If it takes me all night and day

(intro)
(solo)

Now, if you want to hear some music like the boys are playing
Hold tight, bang your foot don't let it carry you away
Don't let the heat overcome you when they play so loud
Won't the music intrigue you when they get a crowd
Well you can't dance I know you would you could
I got my eyes on you, baby, cause you dance so good

(intro)

Oh, Carol
Don't let him steal your heart away
I'm gonna learn to dance
If it takes me all night and day

(intro)

Oh, Carol
Don't let him steal your heart away
I've got to learn to dance
If it takes me all night and day////////////////// ¿Te Animas? Sube una canción a este sitio. //////////////////

ACORDES PARA GUITARRA

PIANO UKELELE
Eb
Bb
F


COMENTARIOS

Aún no hay comentarios,

¡escribe el primero!

Escribe una pregunta, duda o comentario sobre esta canción, te responderemos a la brevedad.

Las más tocadas de The Rolling Stones

Toca una Canción al Azar de The Rolling Stones
Eb
Bb
F