Compartir


Imprimir FAQ
+A
-A

Texto

Desplazamiento

Transportador

Color de Fondo

Archivos

-A
+A
Acordes de A C e D durante toda a música.

|-------|-----|
|-------|---3 |
|-22222-|/0-2-|
|-22222-|/2-0-|
|-00000-|/3---|
|-------|-----|

---------------------------------------------

Afinação OPEN G (DBGDGD)

Intro 2x

|/5-X---3-------|-0-0-0-----5-5-5---|
|-0-X---3-3-3-0-|/3-3-1-0---0-0-0---|
|-0-X-0-0-0-0-0-|/4-4-2-0---0-0-0---|
|---X-0-------0-|---------0-0-0-0-0-|
|---------------|-----------0-0-0---|

  A
No good, can't speak, wound up, no sleep
  A
Sky diver, insider, skip rope, stunt flyer
  D                           A
Wounded lover, got no time on hand
  A
One last cycle, thrill freak, Uncle Sam

  D                                  A
Pause for business, know you'll understand
  D                             A
Judge and jury walk out hand in hand

Video Clip de Casino Boogie


ACORDES PARA GUITARRA

PIANO UKELELE
A
C
D


TOP 20: Las más tocadas de The Rolling Stones


Acordes

Cerrar
A
C
D

09.04

x

149