Country Honk
The Rolling Stones
Acordes

Subida por katiapineapple
Álbum: Let It Bleed ( 1969)


Más Versiones
Ver. 2 Ver. 3 Ver. 4 Ver. 5 Ver. 6
+A
-A
(intro)
|------------------------------------------------------------------------------
|------------------------------------------------------------------------------
|------------------------------------------------------------------------------
|-----------------------------------------2--0-2-3-2-0-2-3-2-0-2-0-2-0-2-0-2---
|---2-0-2-3-2-0-2-3-2-0-2-0-2-0-2-0-2--3---------------------------------------
|-3----------------------------------------------------------------------------

|---------------------------------------------
|---------------------------------------------
|---------------------------------------------
|---------------------------------------------
|---2-0-2-3-2-0-2-5-5-5-5-7-5-2-0-------------
|-3-------------------------------3-----------

|-3 3 1 0-------------------------------------
|---------2 / 3-------------------------------
|---------3 / 4-------------------------------
|---------------0 3 2 0----------------------
|---------------------------------------------
|---------------------------------------------

G C
I'm sittin' in a bar tippling a jar in Jackson
G A D
And on the street the summer sun it shines
G C
There's many a bar-room queen I've had in Jackson
G D G
But I just can't seem to drink you off my mind

D G
It's the honky tonk women
D G
Gimme, gimme, gimme the honky tonk blues

C
I laid a divorcee in New York City
G A D
I had to put up some kind of a fight
G C
The lady she all dressed me up in roses
G D G
She blew my nose and then she blew my mind

(Fiddle solo, play verse chords here)

D G
It's the honky tonk women
D G
Gimme, gimme, gimme the honky tonk blues
D G
It's the honky tonk women
D G
Gimme, gimme, gimme the honky tonk blues
D G
It's the honky tonk women
D G
Gimme, gimme, gimme the honky tonk blues

ACORDES PARA GUITARRA

PIANO UKELELE
G
C
A
D


COMENTARIOS

Aún no hay comentarios,

¡escribe el primero!

Escribe una pregunta, duda o comentario sobre esta canción, te responderemos a la brevedad.

Las más tocadas de The Rolling Stones

Toca una Canción al Azar de The Rolling Stones
G
C
A
D