Dead Flowers
The Rolling Stones
Acordes

Subida por Issa
Álbum: Sticky Fingers ( 1971)


Más Versiones
Ver. 2 Ver. 3 Ver. 4 Ver. 5 Ver. 6
+A
-A
(intro) D  A  G  D

D A G D
Well, when you're sitting there in your silk upholstered chair,
D A G D
Talking to some rich folk that you know,
D A G D
Well I hope you won't see me in my ragged company,
D A G D
For you know I could never be alone.

A D
Take me down little Suzie, take me down.
A D
I know you think you're the queen of the underground.
G D
And you can send me dead flowers every morning,
G D
Send me dead flowers by the mail,
G D
Send me dead flowers to my wedding,
D A G D
And I won't forget to put roses on your grave.

D A G D
Well, when you're sitting back in your rose pink Cadillac,
D A G D
Making bets on Kentucky Derby day,
D A G D
I'll be in my basement room with a needle and a spoon,
D A G D
And another girl can take my pain away.

(refrão)

Solo (Base D A G D , 4x como se fosse uma estrofe)

E|-------------------------7--------------------------------------------------------|
B|-----------------------------10---------------------------------------------------|
G|-----------7---9b11---------------11b9~~~-----------------------------------------|
D|---7---9--------------------------------------------------------------------------|
A|----------------------------------------------------------------------------------|
E|----------------------------------------------------------------------------------|

E|----------------------------------------------------------------------------------|
B|--------------------10------------------------------------------------------------|
G|------------7--------------9b11r9----7----9----7---------7~~~---------------------|
D|---7---9-------9------------------------------------9-----------------------------|
A|----------------------------------------------------------------------------------|
E|----------------------------------------------------------------------------------|

E|----------------------10----------------------------------------------------------|
B|---------------------------10b12---10---8---10------------------------------------|
G|-----------7-------------------------------------9b10---9---7-------7---7~~-------|
D|---7---9-------9------------------------------------------------9-----------------|
A|----------------------------------------------------------------------------------|
E|----------------------------------------------------------------------------------|

E|----------------------------------------------------------------------------------|
B|-------------------10-------------------------------------------------------------|
G|-----------7------------9b10r9---7---9---7-------7~~~-----------------------------|
D|---7---9-------------------------------------9------------------------------------|
A|----------------------------------------------------------------------------------|
E|----------------------------------------------------------------------------------|

E|----------------------------------------------------------------------------------|
B|---------------------------10---------10---------10-------------------------------|
G|-----------7---------9b11-------9b11-------9b11-------9b10r9----------------------|
D|---7---9------9-------------------------------------------------------------------|
A|----------------------------------------------------------------------------------|
E|----------------------------------------------------------------------------------|

E|----------------------10----------------------------------------------------------|
B|----------------------------10b11---10---8---10-----------------------------------|
G|-----------7--------------------------------------9b11---9---7---7~~--------------|
D|---7---9-------9------------------------------------------------------------------|
A|----------------------------------------------------------------------------------|
E|----------------------------------------------------------------------------------|

E|---10-----------------------------------------------------------------------------|
B|-------10b12---10---8---10--------------------------------------------------------|
G|-----------------------------9b11r9---7-------9b11r9----7-------7~----------------|
D|------------------------------------------9-----------------9---------------------|
A|----------------------------------------------------------------------------------|
E|----------------------------------------------------------------------------------|

E|----------------------------------------------------------------------------------|
B|-------------------------10-------------------------------------------------------|
G|------------7---9b10----------9b11r9---7------------------------------------------|
D|---7---9------------------------------------9---7---------------------------------|
A|-----------------------------------------------------9---7---5-------------------|
E|-------------------------------------------------------------------5~~~-----------|

A D
Take me down little Suzie, take me down.
A D
I know you think you're the queen of the underground.
G D
And you can send me dead flowers every morning,
G D
Send me dead flowers by the U. S. mail,
G D
Say it with dead flowers at my wedding,
D A G D
And I won't forget to put roses on your grave.
D A G D
No I won't forget to put roses on your grave.

ACORDES PARA GUITARRA

PIANO UKELELE
D
A
G


COMENTARIOS

Aún no hay comentarios,

¡escribe el primero!

Escribe una pregunta, duda o comentario sobre esta canción, te responderemos a la brevedad.

Las más tocadas de The Rolling Stones

Toca una Canción al Azar de The Rolling Stones
D
A
G