Emotional Rescue
The Rolling Stones
Acordes

Subida por Kamp
Álbum: Emotional Rescue ( 1980)


Más Versiones
Ver. 2 Ver. 3 Ver. 4 Ver. 5
+A
-A
g-----|-----|--7-------|-----------------------|---------------7-------|---------------------------|
d-----|-----|------10--|--8-------------8------|-------------------10--|--8--8---------------------|
a-----|-----|--5-------|---------8--10---------|-----------------------|--------8/10--10--------8--|
e-----|-----|----------|--------------------6--|--6-----6--6-----------|------------------6--------|

is there... nothing... change... so in...
|---------------------------|-----------------------|-----------------|--7---------------|-----------------|
|--8--6--8--8--8------------|---------------8-------|-----------------|------10--8-------|-----------------|
|-----------------0/10---8--|--------0/10-------10--|-----------------|--------------10--|-----------------|
|---------------------------|--6--------------------|--6-----6-----8--|------------------|--6-----6-----6--|

too deeply... kinda... you're... rich... ooh hoo...
|--7-----7--------|------------------------|------75-------------|------------|--10--7-------------|
|-----8-----8-----|--8--8------8-----------|-----------8----------|--8--8------|---------8---8---8--|
|--------------8--|--------10------10---8--|---------------8--10--|------------|--------------------|
|-----------------|------------------------|--6-------------------|---------6--|--------------------|

hoo hoo... ooh hoo... hoo hoo...
|---------------|--10--7--10---------|-------------------|--------------------------|---------------------------|
|---------8--8--|-------------8---8--|------8--8--8---8--|--------------------------|---------------------------|
|--8--10--------|--------------------|--10---------------|--10---10--10--10---------|--10--10--8--10---10---10--|
|---------------|--------------------|-------------------|--------------------8/10--|---------------------------|

don't... never... just like...
|------------------------------|-----|----------------|-----------------|--------------------------|
|------------------------------|-----|--8----------8--|-----------------|---------8--8-------------|
|--12--12--10--10--8--8--7--7--|--5--|-----8----------|--------------8--|--8--10---------0--10--8--|
|------------------------------|-----|---------6------|--6---6---6------|--------------------------|

over... I'll be... stead fast... I'll come...
|------------------|--7------------7-----|--------10-----7--|--7--10--7-----7--------|--7-----10--10--7--|
|-------8-------8--|-----8---8--8-----8--|--8--8------8-----|------------8--------8--|-----8-------------|
|8--10-------------|---------------------|------------------|------------------------|-------------------|
|-----------6------|---------------------|------------------|------------------------|-------------------|

I'll come... ooh hoo... hoo hoo...
|---------------10------------|--10------------10--|-----------------------------|----------------------|
|--8---------8------8------8--|------8------8------|--8---------8----------------|----------8--8--7--8--|
|-----0--10------------10-----|---------10---------|-----0--10-----0--10---------|--8---8---------------|
|-----------------------------|--------------------|----------------------5---6--|----------------------|

ooh hoo... hoo hoo... yeah every...
|------------------------|--------------------------|----------------------|-----------------------|
|------8-----------8-----|--8-----8-----7-----7-----|--5---5---4--5--------|-------5---5--------5--|
|------------------------|--------------------------|----------------------|--5/7---------5--7-----|
|--6---------6--6-----6--|-----6-----6-----5-----5--|----------------3--3--|-----------------------|

crying crying...
|--------------------------|-----------------|----------------------|---------------------|---------------2--------|
|--3--3--3-----------------|-----------------|--5-------------5-----|---------------------|------3-----3-----3--3--|
|-----------3--------------|-----------------|-----5-------------5--|---------------------|------------------------|
|--------------1-----0--0--|--1--1--1-----1--|--------3---3---------|--3--3--3---3-----3--|--1---------------------|

child...
|--2-----5-----2-----|--------4--4--5--5--7--7--|--5--7--5--4---------|--------2--2--3--3--5--3--2--|
|-----3-----3-----3--|--5--5--------------------|--------------5---5--|--3--3-----------------------|
|--------------------|--------------------------|---------------------|-----------------------------|
|--------------------|--------------------------|---------------------|-----------------------------|

I'm like...
|--3--2-------------|-------------------------|-----------------------|--------------------|-----------------|
|--------3---3---3--|--5----------5--5--5--4--|--5---5---4--5--5--5--|--3--3--2--3--------|-----------------|
|-------------------|----------5--------------|-----------------------|--------------------|-----------------|
|-------------------|------3------------------|-----------------------|-----------------1--|--1---1---1---1--|

you... special... you...
|-------------------|--7-----7-------|--------------------|----------7-------|--------------------|
|----------5--4--5--|--5---------10--|--8---7--8----------|--------------10--|--8---7--8----------|
|------5------------|----------------|--------------------|------------------|--------------------|
|--3----------------|----------------|-------------6---6--|--6---6-----------|-------------6---6--|

I'll be... stead fast... I'll come...
|----------7-------|--7------------7---------|--7-----------------|--------------------------|
|--------------10--|-----8-----8------10--8--|-----10-----10--12--|--12--10--8--8--8---------|
|------------------|--------8----------------|--------------------|-------------------8--10--|
|--6---6-----------|-------------------------|--------------------|--------------------------|

I'll come...
|------------------------------|--------------------------|-------------------------------|
|--8--8------------------------|--12--10--8--8--8---------|--8--8------8--8--8--8--10/12--|
|--------10--8-----------------|-------------------8--10--|--------10---------------------|
|---------------6--6--6--0/10--|--------------------------|-------------------------------|

ah ha ah... ha ha ha ah ha ha...
|----------------------------|------------------------|---------------|---------------------|
|--8--8---------8--8---------|--8--8--8--8--8--8------|--8--8---8--8--|--8--8--8--8---8--7--|
|--------8--10--------10-----|--------------------10--|---------------|---------------------|
|-------------------------6--|------------------------|---------------|---------------------|

yeah... dreaming...
|---------------3--4------------|----------------|--------5--------3--2-----|---------------3--2--2--3--2-----|
|--5---5--3--5--------5---3--4--|--5---5---5--5--|--3--3-----3--3--------3--|--3--------3------------------3--|
|-------------------------------|----------------|--------------------------|-----3--3------------------------|
|-------------------------------|----------------|--------------------------|---------------------------------|

|---------5--4--5--4-----|-------------------|-----3---2--------------------|--------3---2---------|
|--5---5--------------5--|--5---5---5--5--5--|--3---------3--3--3--3--3--3--|--3--3---------3---3--|
|------------------------|-------------------|------------------------------|----------------------|
|------------------------|-------------------|------------------------------|----------------------|

mine crying...
|-----------------|-----4--7---------7-----|-----3-----2-----5-----|-----3-----2-----5-----|----------------|
|--5---5---5---5--|--5--------5---5-----5--|--3-----3-----3-----3--|--3-----3-----3-----3--|--3--5----------|
|-----------------|------------------------|-----------------------|-----------------------|---------5------|
|-----------------|------------------------|-----------------------|-----------------------|-------------3--|

crying... a child
|-----------------------|------------2-----|--3/5-----3--2------------|----------------------|
|--3--5--5--5--5--5--5--|--3--3---3-----3--|-------3--------3--3---3--|--5---5--5--5---5--5--|
|-----------------------|------------------|--------------------------|----------------------|
|-----------------------|------------------|--------------------------|----------------------|

you could... mine mine you could...
|-------------------------|-----------------|-----------------|-----------------|---------------------|
|--5---3--4--5--5---3--3--|--3---3---3---3--|--3---3---3---3--|--5---5---5---5--|--5---5---5---5---3--|
|-------------------------|-----------------|-----------------|-----------------|---------------------|
|-------------------------|-----------------|-----------------|-----------------|---------------------|

|-----5---5-----5--5--------|-----5--2---------2-----|-----------7--4--------4--|--7-----7--5--|
|--3---------3--------3--3--|--3---------3--3-----3--|--5--5--5--------5--5-----|--------------|
|---------------------------|------------------------|--------------------------|--------------|
|---------------------------|------------------------|--------------------------|--------------|

I come to... silent... so stealthy... animal...
|----------------10--7--|--------7--10---10---7--|--10--7-----7--10---10--|--10/12--7-------------|
|--8--8--8---8----------|--8--8------------------|---------8--------------|-------------8--8---8--|
|-----------------------|------------------------|------------------------|-----------------------|
|-----------------------|------------------------|------------------------|-----------------------|

I'll be... stead fast... I'll come...
|--10--7------7--10---10--7--|-----7--10---10/12--|--10--7------7--10--|--10--7------7--10--10--10--|
|----------8-----------------|--8-----------------|----------8---------|----------8-----------------|
|----------------------------|--------------------|--------------------|----------------------------|
|----------------------------|--------------------|--------------------|----------------------------|

I'll come... ah ah ah...
|--10--7--------7--10--7--7--7--|--10--7-----7--10--10--10/12--|--10--7--------7--10--10---------|
|---------8--8------------8--8--|---------8--------------------|---------8--8--------------8-----|
|-------------------------------|------------------------------|------------------------------8--|
|-------------------------------|------------------------------|---------------------------------|

mine mine ooh
|---------------------|-------------|------------------|-----------------------|------5--7--5--7--|
|------8---------87--|--6---5---5--|--3--5---5/8---5--|--7--7---7---5--7---5--|--7---------------|
|---------8-----------|-------------|------------------|-----------------------|------------------|
|--6---------6--------|-------------|------------------|-----------------------|------------------|

mm yes tonight...
|-------------------|-------------7--5--7--|-------------------|--------------------------7--5--7/--|
|--8----------------|----------------------|--8---------8---8--|--7--8--8--7--8--8--7--8------------|
|-------------------|----------------------|-------------------|------------------------------------|
|-----6--6---6---6--|--6---6---6-----------|-----6--6----------|------------------------------------|

night knight... coming... your...
|--10--------------|--7--10--7---8--7-----|-----------------|---------------------|---------------------|
|-------8---8---8--|-------------------8--|--8---8---8---8--|--8---------8--------|--8---------8--------|
|------------------|----------------------|-----------------|---------------------|---------------------|
|------------------|----------------------|-----------------|-----6--6------6--6--|-----6--6------6--6--|

you will... all mine you will... mine...
|-----------------------|---------------------|-----------------------|-------------------|--------------|
|--8--------------------|--8------------------|--8--------------------|--8---------8------|--8-----8-----|
|------------/10--8-----|------------6--5-----|------------/10--8-----|-------------------|--------------|
|-----6--6-----------6--|-----6--6---------6--|-----6--6-----------6--|-----6--6-------6--|-----6-----6--|

your knight... shining...
|-----------------------|---------------------|-----------------------|--------------------------|
|--8--8--8--------------|--8------------------|--8--------------------|--8-----------------------|
|-----------------------|-----8---------------|-----8-----------------|-----8--------------------|
|-----------6--6--6--6--|--------6--6--6---6--|--------6--6--6--6--6--|--------6--6--6--6--6--6--|

across... desert on a...
|-----------------------|------------------------|-----------------------|--------------------|
|-----------------------|------------------------|-----------------------|--------------------|
|-----5-----------5-----|--------5---------5-----|-----8-----------5-----|--6--6--5-----------|
|--6-----6-----6-----6--|--6--6-----6---6-----6--|--6-----6-----6-----6--|-----------6--6--6--|

charger
|--------------------------|--------------------|------------------------|-------------------------|
|--------------------------|--------------------|------------------------|-----------10/12--8--10--|
|--------6/8---------5-----|--6--6--5-----------|--------8---------8-----|--6--5-------------------|
|--6--6-------6---6-----6--|-----------6--6--6--|--6--6-----6---6-----6--|--------5----------------|

|--------------------|----------------------------|-----7------------|--------------------------|
|--8---8-------------|--------------10/12--8--10--|--8-----8---------|------------10/12--8--10--|
|--------------------|--------5-------------------|------------------|--------------------------|
|----------6--6---6--|--6--6-----6----------------|-----------6---6--|--6---6--6----------------|

|-------------------|--------------------------|------------------|--------------------------|
|--8----------------|---------------12--8--10--|--8---------------|---------------12--8--10--|
|-------------------|--------------------------|------------------|--------------------------|
|------6--6--6---6--|--6---6--6--6-------------|-----6--6--6---6--|--6---6--6--6-------------|

|-------------------|-----------------------------|-------------------|-----------------------10--7--|
|--8----------------|---------------10/12--8--10--|--8---------8------|-------------10/12--8---------|
|-------------------|-----------------------------|-------------------|--/8------8-------------------|
|------6--6--6---6--|--6---6--6--6----------------|-----6--6-------6--|-------8----------------------|

|----------------10--7--|--------------10--7--|--------------10--7--|----------------10--7--|
|--8---8---8--8---------|--8---8---8----------|--8---8---8----------|--8---8---8--8---------|
|-----------------------|---------------------|---------------------|-----------------------|
|-----------------------|---------------------|---------------------|-----------------------|

|--------------10--7--|----------------10--7--|------10---10---10--7--|--------------10--|--10---------------|
|--8---8---8----------|--8---8---8--8---------|--8---------------------|--8---8---8-------|------------8---8--|
|---------------------|-----------------------|------------------------|------------------|-------10---------|
|---------------------|-----------------------|------------------------|------------------|-------------------|

|------------------------10--|--10-----------10--7--|--------7--------7--8--|--7---------------8--7--|
|---------8---8---8---8------|-------8---------------|--8--8-----8-----------|-----8--8--8--8---------|
|--0/10----------------------|-----------------------|-----------------------|------------------------|
|----------------------------|----------6------------|-----------------------|------------------------|

|------------------10--7--|-----------------|
|--8--8--10--8------------|--8--8--8--8--8--|
|-------------------------|-----------------|
|-------------------------|-----------------|////////////////// ¿Te Animas? Sube una canción a este sitio. //////////////////

ACORDES PARA GUITARRA

PIANO UKELELE


COMENTARIOS

Aún no hay comentarios,

¡escribe el primero!

Escribe una pregunta, duda o comentario sobre esta canción, te responderemos a la brevedad.

Las más tocadas de The Rolling Stones

Toca una Canción al Azar de The Rolling Stones