Empty Heart
The Rolling Stones
Acordes

Subida por yoye1958
Álbum: 12 × 5 ( 1964)


Más Versiones
Ver. 2 Ver. 3 Ver. 4 Ver. 5 Ver. 6
+A
-A
----5--------7--------------0--0----------------|
----5--------7--------7-----0--0----------------|
----x--------6-----7--7-----1--1----------------|
----7--------5-----7--7-----2--2----------------|
----7--------5-----5--5--0--2--2----------------|
-5--5--0--3--3--------------0--0----------------|

---------------------------------------------------------------------------------------|
-------------------------14br12--------------------------------------------------------|
-7br5-------7br5----------------13------7br5-----------------------------5--7b--------|
-------7----------7----------------------------7---5------------5--7---7---------------|
------------------------------------------------------7------7-------------------------|
---------------------------------------------------------------------------------------|

---------------------------------------------------------------------------------------|
--------------------------------------------5-----5-----5-----5------------------------|
-7br5-------7br~---7br5------15br13------7b----7b----7b----7b---------5----------------|
-------7----------------7-----------14---------------------------5h7-------------------|
---------------------------------------------------------------------------------------|
---------------------------------------------------------------------------------------|

---------------------------------------------------------------------------------------|
---------------------------------------------------------------------------------------|
----7br5----7--5------5--7br5-----5--7br5----5--7br5---5--7br-------15br13-------------|
-7-------7---------7-----------7----------7----------7--------7-------------14---------|
---------------------------------------------------------------------------------------|
---------------------------------------------------------------------------------------|

----------------------5----------------------------------------------------------------|
---------------------------------------------------------------------------------------|
-14br12------7br5---------7br5-----7br5----7br5----7br5--------------------------------|
--------14--------7------------7--------7-------7-------7------5--7------5--7-----5--7-|
------------------------------------------------------------7---------7---------7------|
---------------------------------------------------------------------------------------|

----------------------------------------------------------------------------------------|
-------------------------------------------------------------------------15b13----------|
-------5--7b--------5--7b--------5--7b--------5--7b--7p5----7b--7p5-------------14------|
---5-7----------5-7----------5-7----------5-7------------7----------7-------------------|
-7------------7------------7-----------7------------------------------------------------|
----------------------------------------------------------------------------------------|

-5--------------------------------------------------------------------------------------|
----------------------------------------------------------------------------------------|
---7br5-----7br5----5-------------7br5---5--7b---5--7b--7--5-----7b--7-5--7b--7-5-------|
--------7--------7-----7---5--7--------7----------------------7-------------------------|
----------------------------------------------------------------------------------------|
----------------------------------------------------------------------------------------|

----------------------------------------------------------------------------------------|
----------------15br13--------------15br13----------------------------------------------|
-7b--7--5--------------14---5--7b----------14--14---7br5----------------5--7b--5--7b----|
-----------7---------------------------------------------7--7------5h7------------------|
----------------------------------------------------------------7-----------------------|
----------------------------------------------------------------------------------------|

----------------------------------------------------------------------------------------|
----------------------------------------------------------------------------------------|
-------5--7b-------5--7b-------7---5----------------------------------------------------|
--5h7----------5h7---------7------------------------------------------------------------|
----------------------------------------------------------------------------------------|
----------------------------------------------------------------------------------------|

ACORDES PARA GUITARRA

PIANO UKELELE


COMENTARIOS

Aún no hay comentarios,

¡escribe el primero!

Escribe una pregunta, duda o comentario sobre esta canción, te responderemos a la brevedad.

Las más tocadas de The Rolling Stones

Toca una Canción al Azar de The Rolling Stones