Gimme Shelter
The Rolling Stones
Acordes

Subida por feernando
Álbum: Let It Bleed ( 1969)


Más Versiones
Ver. 2 Ver. 3 Ver. 4 Ver. 5 Ver. 6
+A
-A
Guitarra base introduçao 
C# B A
4
-|-----------------|-----------------|-----------------|-----------------|
-|-----7---7---6-7-|-----5---5---4-5-|-----4-2---4-2---|-4-2---4-2---4-2-|
-|---6---8-----6-8-|---4---6-----4-6-|---2-----2-----2-|-4-2---4-2---4-2-|
-|-6---------6-----|-4---------4-----|-2---------------|-----2-----2-----|
-|-----------------|-----------------|-----------------|-----------------|
-|-----------------|-----------------|-----------------|-----------------|

C# B A
8
-|-----------------|-----------------|-----------------|-----------------|
-|-----7---7-7-7-7-|-----5---5-5-5-5-|-----4-2---4-2---|-4-2-----4-2-4-2-|
-|---6---8-8-8-8-8-|---4---6-6-6-6-6-|---2-4-2-2-4-2---|-4-2---2-4-2-4-2-|
-|-6---------------|-4---------------|-2-------------2-|-----2-----------|
-|-----------------|-----------------|-----------------|-----------------|
-|-----------------|-----------------|-----------------|-----------------|

C# B A
12
-|-----------------|-----------------|-----------------|-----------------|
-|-----7---7-7-7-6-|-----5---5-5-5-4-|-----4-2---4-2---|-4-2-----4-2-4-2-|
-|---6---8-8-8-8-6-|---4---6-6-6-6-4-|---2-4-2-2-4-2---|-4-2---2-4-2-4-2-|
-|-6---------------|-4---------------|-2-------------2-|-----2-----------|
-|-----------------|-----------------|-----------------|-----------------|
-|-----------------|-----------------|-----------------|-----------------|

C# B A
16
-|-----------------|-----------------|-----------------|-----------------|
-|-6-7-7---9-7-6---|-4-5-5---7-5-4---|-----4-2---4-2---|-4-2-----2-4-2-2-|
-|-6-8-8---8-8-6-6-|-4-6-6---6-6-4---|---2-4-2---4-2---|-4-2---2-2-4-2-2-|
-|-------6---------|-------4-------4-|-2-------2-----2-|-----2-----------|
-|-----------------|-----------------|-----------------|-----------------|
-|-----------------|-----------------|-----------------|-----------------|

C# B A
20
-|-----------------|-----------------|-----------------|-----------------|
-|-----7---9-7-6---|-----5---7-5-4---|-----4-2---4-2---|-4-2-----2-4-4-2-|
-|---6---8-8-8-6---|---4---6-6-6-4---|---2-4-2---4-2---|-4-2---2-2-4-4-2-|
-|-6-------------6-|-4-------------4-|-2-------2-----2-|-----2-----------|
-|-----------------|-----------------|-----------------|-----------------|
-|-----------------|-----------------|-----------------|-----------------|

C# B A E A E A E B E B
24
-|-----------------|-----------------|-----------------|-----------------|
-|-----7---9-7-6---|-----5---7-5-4---|-----4-2---4-2---|-----------------|
-|---6---8-8-8-6---|---4---6-6-6-4---|---2-4-2---4-2---|-----------------|
-|-6-------------6-|-4-------------4-|-2-------2-----2-|-----------------|
-|-----------------|-----------------|-----------------|---7---7---9---9-|
-|-----------------|-----------------|-----------------|-0-5-0-5-0-7-0-7-|

guitarra principal Introduçao
C# B A A
-|-----------------|-----------------|-----------------|-------------9-9>|
-|-----------------|-----------------|-----------------|-----------12----|
-|-----------------|-----------------|-----------------|-----------------|
-|-----------------|-----------------|-----------------|-----------------|
-|-----------------|-----------------|-----------------|-----------------|
-|-----------------|-----------------|-----------------|-----------------|

C# B A A
-|>9---------9-----|-----------------|-----------------|-------------9-9>|
-|------------12-9>|>9-----------9b10|-----------------|---9-------12----|
-|-----------------|-----------------|-----------------|11---------------|
-|-----------------|-----------------|-----------------|-----------------|
-|-----------------|-----------------|-----------------|-----------------|
-|-----------------|-----------------|-----------------|-----------------|

C# B A A
-|>9---------------|-----------------|---9-------9-----|-------------9-9>|
-|------------9b10-|-9b10r9----------|12------12-----9>|>9b10r9---12-----|
-|-----------------|-----------------|-----------------|---------9-------|
-|-----------------|-----------------|-----------------|-----------------|
-|-----------------|-----------------|-----------------|-----------------|
-|-----------------|-----------------|-----------------|-----------------|

C# B A A
-|>9--------9------|-----------------|--------9--------|-----9------------|
-|------------12-9>|b10r9------------|--12-------------|--12--12-9b10-9b10|
-|-----------------|-----------------|-9---------------|-9----------------|
-|-----------------|-----------------|-----------------|------------------|
-|-----------------|-----------------|-----------------|------------------|
-|-----------------|-----------------|-----------------|------------------|

C# B A A
-|-----------------|-----------------|-9---------------|-----------9---9>|
-|-9b10r9----------|-9---------9--12-|--12---------9---|-----9--12--12---|
-|-----------------|--11---------9---|----------11-----|--11-------------|
-|-----------------|-----------------|-----------------|-----------------|
-|-----------------|-----------------|-----------------|-----------------|
-|-----------------|-----------------|-----------------|-----------------|

C# B A A
-|>9---------------|-9---------------|-----------------|---9-------------------|
-|----------9---12-|---12----9b10----|-9b10------9---9-|12--12-------12--------|
-|--------11--9----|-----------------|---------11--11--|-------9--11b13r11p9---|
-|-----------------|-----------------|-----------------|--------------------11-|-11vvv
-|-----------------|-----------------|-----------------|-----------------------|
-|-----------------|-----------------|-----------------|-----------------------|

Verso 1
C# (sus)
Ooh a storm is threatening my very life today
If I don't get some shelter, Oh yeah I'm gonna fade away

refrao 1,2,4
C# B A E A E A E B E B
War, Children, It's just a shot away, It's just a shot away
C# B A E A E A E B E B C#
War, Children, It's just a shot away, It's just a shot away

Verso 2
Ooh, see the fire sweepin, our very streets today
Burn like a red coal carpet, Mad bull lost its way

Refrao 2
Solo
Refrao 3
(3 vezes)
C# B A E A E A E B E B
Rape, Murder, It's just a shot away, It's just a shot away

Verso 3
Mmm, the flood is threatening, my very life today
Gimme, Gimme Shelter, I'm gonna fade away

Refrão 4
C# B A E A E A E B E B
Love, sister, It's just a kiss away, It's just a kiss away
It's just a kiss away, It's just a kiss away, kiss away, kiss away, yeah


Guitarra base
C#
-|-----------------|-----------------|-----------------|-----------------|
-|-----6-----6-----|-6---7---7-6---6>|>6---6-----6-----|-----7-----------|
-|-----6-----6-----|-6---6---6-6---6>|>6---6-----6-----|-9-6-6-6-----6-4-|
-|-----6-----6-----|-6---6---6-6---6>|>6---6-----6-----|-6-6-6-6-----6-4-|
-|-----4-----4-----|-4---4---4-4---4>|>4---4-----4-----|-----------------|
-|-----------------|-----------------|-----------------|-----------------|

C#
-|-----------------|-----------------|-----------------|-----------------|
-|-6---6-----6-----|-6---7-6-------6>|>6---6-----6-----|-----7-----------|
-|-6---6-----6-----|-6---6-6-------6>|>6---6-----6-----|-9-6-6-6-----6-4-|
-|-6---6-----6-----|-6---6-6-------6>|>6---6-----6-----|-6-6-6-6-----6-4-|
-|-4---4-----4-----|-4---4-4-------4>|>4---4-----4-----|-----------------|
-|-----------------|-----------------|-----------------|-----------------|

3 verso
C#
-|-----------------|-----------------|-----------------|-----------------|
-|-----6-----6-----|-----7-6---------|-----6-----6-6---|-----7-6---------|
-|-----6-----6-----|-9-6-8-6-----9-6-|>6---6-----6-6---|-9-6-8-6-----9-6-|
-|-----6-----6-----|-6-6-6-6-----6-6-|>6---6-----6-6---|-6-6-6-6-----6-6-|
-|-----4-----4-----|-----------------|-----------------|-----------------|
-|-----------------|-----------------|-----------------|-----------------|


guitarra base no refrao
C# B A E A E A E B E B
-|-----------------|-----------------|-----------------|-----------------|
-|-----------------|-----------------|-----------------|-----------------|
-|-6---6-666-6---6-|-4---4-444-4---4-|-2---2-222-2---2-|-----------------|
-|-6---6-666-6---6-|-4---4-444-4---4-|-2---2-222-2---2-|-----------------|
-|-4---4-444-4---4-|-2---2-222-2---2-|-0---0-000-0---0-|---7---7---9---9-|
-|-----------------|-----------------|-----------------|-0-5-0-5-0-7-0-7-|

C# B A E A E A E B E B
-|-----------------|-----------------|-----------------|-----------------|
-|-6---6-667-6---6-|---------5-4-4-4-|---------3-2-2-2-|-----------------|
-|-6---6-666-6---6-|-4---4-444-4-4-4-|-2---2-222-2-2-2-|-----------------|
-|-6---6-666-6---6-|-4---4-444-4-4-4-|-2---2-222-2-2-2-|-----------------|
-|-4---4-444-4---4-|-2---2-222-2-2-2-|-0---0-000-0-0-0-|---7---7---9---9-|
-|-----------------|-----------------|-----------------|-0-5-0-5-0-7-0-7-|

guitarra principal no fim refrão 1
C#
-|-----------------|-----------------|-----------------|----------------|
-|-----------------|------12b14b14b14|b14r12-----9-----|----------------|
-|-----------------|-----------------|------11-----11--|11b13r11--------|
-|-----------------|-----------------|-----------------|---------9-11---|
-|-----------------|-----------------|-----------------|----------------|
-|-----------------|-----------------|-----------------|----------------|

guitarra principal no fim do refrão 2
C#
-|-----------------|-----------------|-----------------|----------------------|
-|-----------------|-----------------|-----------------|---12-----------------|
-|-----------------|-----------------|-------------9-11|b13--b13r11-9-11-9----|
-|-----------------|------9----------|----11---9-11----|-------------------11>|
-|-----------------|-9h11--11--------|-----------------|----------------------|
-|-----------------|-----------------|-----------------|----------------------|

C#
-|-----------------|-----------------|-----------------|----------------|
-|-----------------|---12------------|--------12---12--|---12-----------|
-|--------------11>|b13--b13r11-9----|---11b13--b13--11|b13---9---------|
-|>11--------------|--------------11-|-----------------|---------11-----|
-|-----------------|-----------------|-----------------|----------------|
-|-----------------|-----------------|-----------------|----------------|

C# B A E A E A
E B E B
-|-----------------|-----------------|----9-----------------|------------------------|
-|-----------------|-----------------|----------------------|------------------------|
-|---11b13-9-------|-9---------9---9-|11b13-13r11-9-11-9-11-|b13b13b13b13r11-9-------|
-|----------11-9-11|--11-9-11---11---|----------------------|------------------11-11>|
-|-----------------|-----------------|----------------------|------------------------|
-|-----------------|-----------------|----------------------|------------------------|

C# B A E A E A E
B E B
-|-----------------|-----------------|-----------------|------------------------|
-|-----------------|-----------------|-----------------|------------------------|
-|-----------------|---------9-------|-----------------|-11b13b13b13b13r11-9----|
-|>11vvvv----------|---9-11----11>>>>|>11vvvv----------|---------------------11-|
-|-----------------|-----------------|-----------------|------------------------|
-|-----------------|-----------------|-----------------|------------------------|

C# B A E A
E A E B E B
-|-----------------|----------------------------|------------------|--------------------|
-|-----------------|12b14b14b14b14b14r12-12-----|------------------|--------------------|
-|-----------------|-----------------------11-9-|-------------9-11-|b13----------9-11b13|
-|-11vvvv----------|----------------------------|-11vvv--9-11------|----11--9-11--------|
-|-----------------|----------------------------|------------------|--------------------|
-|-----------------|----------------------------|------------------|--------------------|


essa musica vai em homenagem a bob ,digo back e lion

ACORDES PARA GUITARRA

PIANO UKELELE


COMENTARIOS

Aún no hay comentarios,

¡escribe el primero!

Escribe una pregunta, duda o comentario sobre esta canción, te responderemos a la brevedad.

Las más tocadas de The Rolling Stones

Toca una Canción al Azar de The Rolling Stones