I Wanna Be Your Man
The Rolling Stones
Acordes

Subida por Flor


Más Versiones
Ver. 2
+A
-A
C       C7 C    C7     C             C7 C    G7
I wanna be your lover, baby, I wanna be your man
C C7 C C7 C G7 C
I wanna be your lover, baby, I wanna be your man
C C7 C C7 C C7 C G7
Tell me that you love me, baby, tell me you understand
C C7 C C7 C G7 C
Tell me that you love me, baby, tell me you understand

C D7 G7 C
I wanna be your man I wanna be your man
E |---------------------------------------------------------------------------|
B |--------------------10-9-8------------------------8-7-6--------------------|
G |---------------------------7----------------------------9------------------|
D |---------------------------------------------------------------------------|
A |---------------------------------------------------------------------------|
E |---------------------------------------------------------------------------|

C D7 G7 C
I wanna be your man I wanna be your man
E |---------------------------------------------------------------------------|
B |---------------------10-9-8-----------------------8-6----------------------|
G |----------------------------7-----7--7--7--7--7----------------------------|
D |---------------------------------------------------------------------------|
A |---------------------------------------------------------------------------|
E |---------------------------------------------------------------------------|

E |----------8-10-8----8----------8------------------------8-10-8---8---------|
B |-8-8-8-11--------11---8-8-8-11--------8------8--8-8-8-11-------11----------|
G |---------------------------------7-11---7-11-------------------------------|
D |---------------------------------------------------------------------------|
A |---------------------------------------------------------------------------|
E |---------------------------------------------------------------------------|

E |---------------------------------------------------------------------------|
B |-8-8-8-6-------------------------------------------------------------------|
G |---------8-5---------------------------------------------------------------|
D |---------------------------------------------------------------------------|
A |---------------------------------------------------------------------------|
E |---------------------------------------------------------------------------|

C C7 C C7 C C7 C G7
Tell me that you love me, baby, tell me you understand
C C7 C C7 C G7 C
Tell me that you love me, baby, tell me you understand
C C7 C C7 C C7 C G7
I wanna be your lover, baby, I wanna be your man
C C7 C C7 C G7 C
I wanna be your lover, baby, I wanna be your man

ACORDES PARA GUITARRA

PIANO UKELELE
C
C7
G7
D7


COMENTARIOS

Aún no hay comentarios,

¡escribe el primero!

Escribe una pregunta, duda o comentario sobre esta canción, te responderemos a la brevedad.

Las más tocadas de The Rolling Stones

Toca una Canción al Azar de The Rolling Stones
C
C7
G7
D7