In Another Land
The Rolling Stones
Acordes

Subida por EUDY
Álbum: Their Satanic Majesties Request ( 1967)


Más Versiones
Ver. 2
+A
-A
(intro)

(guitar I)
Cm Cm7 Ab6 G
||--------------------------|---------------3-3---3-3--||
||o---------------4-4---4-4-|---6-6---6-6---0-0---0-0-o||
||----5-5---5-5---5-5---5-5-|---5-5---5-5---0-0---0-0--||
||----5-5---5-5---5-5---5-5-|---6-6---6-6--------------||
||o-3-----3-----------------|-------------------------o||
||--------------6-----6-----|-4-----4-----3-----3------||

(verse)
C F
||------------------|---1-------1-----|
||o---1---1---1---1-|-------1-------1-|
||------0-------3---|-----2---3---2---|
||----------2-------|-3---------------|
||o-3---------------|-----------------|
||------------------|-----------------|

Ab Eb Ab
|-----------------|---------4-------|
|---4---4---------|---4---4---4---4-|
|-----5-----0---0-|-----5-------5---|
|-6-----------8---|-6---------------|
|---------6-------|-----------------|
|-----------------|-----------------|

C F Ab Eb
|-----------------|---1-------1-----|-----------------|
|---1---1---1---1-|-------1-------1-|---4---4---------|
|-----0-------3---|-----2---3---2---|-----5-----0---0-|
|---------2-------|-3---------------|-6-----------8---|
|-3---------------|-----------------|---------6-------|
|-----------------|-----------------|-----------------|

Ab D
|---------4-------|-----------2-----|
|---4---4---4---4-|---4---4-------3-|
|-----5-------5---|-----5-------2---|
|-6---------------|-6-------0-------|
|-----------------|-----------------|
|-----------------|-----------------|

(chorus)
G F G7 C
|-----------3-------||-----------------|------------------|
|-------0-----0-----||---1---1---0-----|---1---1----------|
|---0h2---0-----0---||-----2---------0-|-----0-----0---0--|
|-----------------0-||-3-----------3---|-2-----------2----|
|-------------------||-----------------|---------3--------|
|-3-----------------||---------3-------|------------------|

F G7 C
|-----------------|--------------------|
|---1---1---0-----|-1----------------1-|
|-----2---------0-|----------------0---|
|-3-----------3---|-2--2h3p2p0---2-----|
|-----------------|------------3-------|
|---------3-------|--------------------|

(guitar II)
D F
|-2--2--2-2-2-2-2-2-|-2--2--2-2-2-2-2-2-|-1--1-1-1-1-1-1-1-1-|
|-3--3--3-3-3-3-3-3-|-3--3--3-3-3-3-3-3-|-1--1-1-1-1-1-1-1-1-|
|-2--2--2-2-2-2-2-2-|-2--2--2-2-2-2-2-2-|-2--2-2-2-2-2-2-2-2-|
|-0--0--0-0-0-0-0-0-|-0--0--0-0-0-0-0-0-|-3--3-3-3-3-3-3-3-3-|
|-------------------|-------------------|-3--3-3-3-3-3-3-3-3-|
|-------------------|-------------------|-1--1-1-1-1-1-1-1-1-|

F D
|-1-1-1-1-1-1-1-1-1-1-|-2--2-2-2-2-2-2-2-|
|-1-1-1-1-1-1-1-1-1-1-|-3--3-3-3-3-3-3-3-|
|-2-2-2-2-2-2-2-2-2-2-|-2--2-2-2-2-2-2-2-|
|-3-3-3-3-3-3-3-3-3-3-|-0--0-0-0-0-0-0-0-|
|-3-3-3-3-3-3-3-3-3-3-|------------------|
|-1-1-1-1-1-1-1-1-1-1-|------------------|

D F
|-2-2-2-2-2-2-2-2-2-2-|-1--1-1-1-1-1-1-1-1-1-|
|-3-3-3-3-3-3-3-3-3-3-|-1--1-1-1-1-1-1-1-1-1-|
|-2-2-2-2-2-2-2-2-2-2-|-2--2-2-2-2-2-2-2-2-2-|
|-0-0-0-0-0-0-0-0-0-0-|-3--3-3-3-3-3-3-3-3-3-|
|---------------------|-3--3-3-3-3-3-3-3-3-3-|
|---------------------|-1--1-1-1-1-1-1-1-1-1-|

1.,2. 3.
G
|-3-3-3-3-3-3-3-3-3--||-3--3-------|------*|
|-0-0-0-0-0-0-0-0-0-o||-0--0-------|------*|
|-0-0-0-0-0-0-0-0-0--||-0--0-------|------*|
|-0-0-0-0-0-0-0-0-0--||-0--0-------|------*|
|-2-2-2-2-2-2-2-2-2-o||-2--2-------|------*|
|-3-3-3-3-3-3-3-3-3--||-3--3-------|------*|

ACORDES PARA GUITARRA

PIANO UKELELE
Cm
Cm7
Ab6
G
C
F
Ab
Eb
D
G7


COMENTARIOS

Aún no hay comentarios,

¡escribe el primero!

Escribe una pregunta, duda o comentario sobre esta canción, te responderemos a la brevedad.

Las más tocadas de The Rolling Stones

Toca una Canción al Azar de The Rolling Stones
Cm
Cm7
Ab6
G
C
F
Ab
Eb
D
G7