Infamy
The Rolling Stones
Acordes

Subida por Alito
Álbum: A Bigger Bang ( 2005)


Más Versiones
Ver. 2
+A
-A
(riff 1)
-----------------------------------------------|
-----------------------------------------------|
-----------------------------------------------|
-----------------------------------------------|
---------------------------------4---4---------|
-2--2-2-2---3--3-3-3---5--5-5-5----5---5-------|

(riff 2)
-----------------------------------------------|
-----------------------------------------------|
-----------------------------------------------|
-----------------------------------------------|
-----------------------------------------------|
-2-2-2--3--3-3-3--5--5-5-5--5-3-5--0-----------|

(riff 3)
-----------------------------------------------|
-----------------------------------------------|
-----------------------------------------------|
-----------------------------------------------|
-----------------------------------------------|
-2--2-2-2---3--3-3-3--5--5-5-5--5-5-5-5---0----|

(guitar 2)

(intro lick)
----------------------------------|
-3p2---3p2------------------------|
-----2----------------------------|
----------------------------------|
----------------------------------|
----------------------------------|

(play this right at the beginning of 1st verse)

-----------------------------------|
-2h3-2---0-------------------------|
-------2---2-----------------------|
-----------------------------------|
-----------------------------------|
-----------------------------------|

(these licks are played throughout the whole song with variation including in the bridge
Just keep improvising using them)

----------------------------------------------|
-2h3--2-----2h3--2-----2h3--2-----------------|
---------2----------2-------------------------|
----------------------------------------------|
----------------------------------------------|
----------------------------------------------|

(guitar 3)

(bridge)

-------------------------------------------------------|
-7-----------2----7------7---2---7----------2----------|
-7--4-5-4-4--2----7----7--7--2---7--4-5-4-4-2----------|
-7-----------2----7--7-------2---7----------2----------|
-5-----------0----5----------0---5----------0----------|
-------------------------------------------------------|

(guitar 4)

(bridge)

-2----------------2--------------2---------------------|
-3-----------2----3----------2---3----------2----------|
-2-----------2----2----------2---2----------2----------|
-0-----------2----0----------2---0----------2----------|
-------------0---------------0--------------0----------|
-------------------------------------------------------|

ACORDES PARA GUITARRA

PIANO UKELELE


COMENTARIOS

Aún no hay comentarios,

¡escribe el primero!

Escribe una pregunta, duda o comentario sobre esta canción, te responderemos a la brevedad.

Las más tocadas de The Rolling Stones

Toca una Canción al Azar de The Rolling Stones