Let Me Down Slow
The Rolling Stones
Acordes

Subida por Rafaelelias
Álbum: A Bigger Bang ( 2005)



+A
-A
Intro: E

Verse:

E
You look a little dressed up
B
You're acting way too smart
E
Your face a little bit flushed
B
For a walk in the park
E
And you're clutching your phone
B
As you walk in the dark
E
And your smile's got a twist
E B
You're looking so hardcore

Bridge:

B A
If you've something to say
F#m
Don't be too direct
A
'Cause I feel a little fragile
B
Don't hit the nail on the head

Chorus:

B A
Why I said, baby, baby
F#m E
let me down real slow
E B
Oh no no no
A
Why I said, baby, baby
F#m E
let me down real slow
B
Oh no no no

Verse:
E
There's a swish in your step
B
There's a gleam in your eye
E
Are you coloring your hair
B
With some new kind of dye

Bridge:
A
But the first one to blink
F#m
Is the first one to fall
A
I don't want a confrontation
B
I've got my back to the wall

Chorus:
B A
Why I said, baby, baby
F#m E
let me down real slow
E B
Oh no no no
A
Why I said, baby, baby
F#m E
let me down real slow
B
Oh no no no

Solo:

E B
e|----------------------------------|----------------|
B|-7---7---1210-10/12------/12-/12-|--1210-10------|
G|---9---9-1311-11/13------/13-/13-|--1311-11------|
D|----------------------------------|----------------|
A|----------------------------------|----------------|
E|----------------------------------|----------------|

E B
e|---------------------|----------------|
B|-10/12------12-12-12-|-1210-10-10----|
G|-11/13------13-13-13-|-1311-11-11----|
D|---------------------|----------------|
A|---------------------|----------------|
E|---------------------|----------------|

A F#m
e|---------------------|-------------------------------|
B|---------------------|--------------------12---------|
G|------9-11----9-11-9-|-11b13-13r11-----------11b13-9-|
D|--/11------11--------|-------------11-11-------------|
A|---------------------|-------------------------------|
E|---------------------|-------------------------------|

A B
e|---------------------|-------------------------|
B|---------------------|-------------------------|
G|-9--11b13-9---9-11-9-|-11b13----11-11-11b13-11-|
D|------------11-------|-------------------------|
A|---------------------|-------------------------|
E|---------------------|-------------------------|

Chorus:
A F#m E
Oh baby, baby, let me down real slow
B
Oh no no no
A F#m E
Let me strech out in the afterglow
B
Oh na na na na

Solo 2 (arranged for standard tuning):
A F#m
e|---0-----0-----0---|---------------|
B|-5---54---42---0-|---------------|
G|-------------------|-2-21---------|
D|-------------------|-------64-42-|
A|-------------------|---------------|
E|-------------------|---------------|

E B
e|-----12-------10----10-|-------------|
B|-/12-------------12----|-12----------|
G|-----------------------|-------------|
D|-----------------------|-------------|
A|-----------------------|-------------|
E|-----------------------|-------------|
w/ slide

A F#m
e|---------------------|---------7-----|
B|--12-----12---10--/9-|-----9-----7/9-|
G|---------------------|-9-------------|
D|---------------------|---------------|
A|---------------------|---------------|
E|---------------------|---------------|
w/ slide

E B
e|-------12--------10-10-|----------|
B|-------------12--------|-12-------|
G|-----------------------|----------|
D|-----------------------|----------|
A|-----------------------|----------|
E|-----------------------|----------|
w/ slide

A F#m
e|--------------|----------------------|
B|--10----10----|-12--15--1210----/12-|
G|--------------|---------------13-----|
D|--------------|----------------------|
A|--------------|----------------------|
E|--------------|----------------------|
w/ slide

E B
e|----12-12-12-12-10-|-------------|
B|-------------------|-12----------|
G|-------------------|-------------|
D|-------------------|-------------|
A|-------------------|-------------|
E|-------------------|-------------|
w/ slide

A F#m
e|--------------|-------------|
B|--10----10----|---12---12---|
G|--------------|-------------|
D|--------------|-------------|
A|--------------|-------------|
E|--------------|-------------|
w/ slide

E B
e|-------/24------|-------------|
B|-8-----------/9-|-/4----------|
G|---9---------/9-|-/4----------|
D|-------------/9-|-/4----------|
A|----------------|-------------|
E|----------------|-------------|
w/ slide fade out

ACORDES PARA GUITARRA

PIANO UKELELE
E
B
A
F#m


COMENTARIOS

Aún no hay comentarios,

¡escribe el primero!

Escribe una pregunta, duda o comentario sobre esta canción, te responderemos a la brevedad.

Las más tocadas de The Rolling Stones

Toca una Canción al Azar de The Rolling Stones
E
B
A
F#m