Love In Vain
The Rolling Stones
Acordes

Subida por 241088ed
Álbum: Let It Bleed ( 1969)


Más Versiones
Ver. 2
+A
-A
    D                            Em
|--------2------------2-----|--------3------------|
|------3---3--------3---3---|----0---0------------|
|-----2------2----2-------2-|----2/4----4/2-0-----|
|--0-----------0------------|------------------2--|
|---------------------------|---------------------|
|---------------------------|--0------------------|

C G D
|--------------------------|-----3-3-1-----3-|--------2-----------2------|
|--------1--1-----1-----1--|-----0-0-0-------|------3---3-------3---3----|
|----0---0h20-0---0-0---0--|-----0-0-0-------|----2-------2---2-------2--|
|----0h2------0h2---0h2----|-----------------|--0-----------0------------|
|--3-----------------------|-----------------|---------------------------|
|--------------------------|--3--------------|---------------------------|

G G7
||----------------|---------------|1-------1-------|-----0--1---0-1--1-----|
||------0-----0---|----0------0---|0-0---0-0-0-----|---3-3--3-3-3-3--3-----|
||*----0-0---0-0--|---0-0----0-0--|---0-0-----0--0-|-0-0----0-0---0-0--0---|
||----0---0-0---0-|--0---0--0---0-|----0--------0--|-0-------------0---0---|
||*---------------|---------------|----------------|---------------------2-|
||--3------3------|3-------3------|------------3---|-----------------------|

C D7/F# G D C/G G
|---------------|-----------------|-----3-----0h2---|------3---------------|
|---1-----1-----|---0h1-----0h1---|------0---3---3--|-----1--1-0-------0---|
|--0-0---0------|--2---2---2---2--|---0---0-2-----2-|---0-------0------0---|
|-2---2-2-------|-0-----0-0-----0-|--0-----0--------|--0---------0---0-----|
|3-----3----3-2-|-----------------|-----------------|----------------------|
|---------------|2-------2--------|-3---------------|-3------------3-------|

D D/F# Em7 C G G7 D
|---0h2-----------|-----0---------0-------|---3--3-1--3-|---0h2-----2-----||
|--3---3-----3----|----3-0-----1--1-----1-|---0--0-0--0-|--3---3---3-3----||
|-2-----2---2-2---|---0--0--0--0h20-0---0-|--0--0-------|-2-----2-2---2--*||
|0---------0------|--2------0h2-----0h2---|-0-----------|0-------0--------||
|-----------------|--------3--------------|-------------|----------------*||
|--------2------2-|0----------------------|3------------|-----------------||

ACORDES PARA GUITARRA

PIANO UKELELE
D
Em
C
G
G7
D7/F#
C/G
D/F#
Em7


COMENTARIOS

Aún no hay comentarios,

¡escribe el primero!

Escribe una pregunta, duda o comentario sobre esta canción, te responderemos a la brevedad.

Las más tocadas de The Rolling Stones

Toca una Canción al Azar de The Rolling Stones
D
Em
C
G
G7
D7/F#
C/G
D/F#
Em7