No Expectations
The Rolling Stones
Acordes

Subida por Luna
Álbum: Beggars Banquet ( 1968)


Más Versiones
Ver. 2 Ver. 3 Ver. 4 Ver. 5
+A
-A
Intro: C G C G C G F C G

Solo

E|-------3--------------|-------3--------------|
B|--3/5*---5-5-------3--|--3/5*---5-5-------3--| NOTE: * means slide
G|--------------3/4*----|--------------3/4*----| to but don't
D|----------------------|----------------------| strike the
A|----------------------|----------------------| note.
E|----------------------|----------------------|

INTRO CONTINUED:

E|-------3-----------3--|------------------------------------|
B|--3/5*---5-5--3/5*----|--9/10*---10/8*---10/12*---10/12*---|
G|----------------------|--9/10*---10/8*---10/12*---10/12*---|
D|----------------------|------------------------------------|
A|----------------------|------------------------------------|
E|----------------------|------------------------------------|



C G
Take me to the station
C G
And put me on a train
C G
I've got no expectations
F C G
To pass through here again


C G
Once I was a rich man
C G
Now I am so poor
C G
But never in my sweet short life
F C G
Have I felt like this before


C G
Your heart is like a diamond
C G
You throw your pearls at swine
C G
And as I watch you leaving me
F C G
You pack my piece of mind

Tocar intro e solo novamente


C G
Our love was like the water
C G
That splashes on a stone
C G
Our love is like our music
F C G
It's here, and then it's gone


C G
So take me to the airport
C G
And put me on a plane
C G
I got no expectations
F C G
To pass thrugh here again

ACORDES PARA GUITARRA

PIANO UKELELE
C
G
F


COMENTARIOS

Aún no hay comentarios,

¡escribe el primero!

Escribe una pregunta, duda o comentario sobre esta canción, te responderemos a la brevedad.

Las más tocadas de The Rolling Stones

Toca una Canción al Azar de The Rolling Stones
C
G
F