Not Fade Away
The Rolling Stones
Acordes

Subida por tonino


Más Versiones
Ver. 2 Ver. 3
+A
-A
Main Riff
G- -----------------|
D- -----------------|
A- 555--3-----------|
E- -----------5-4-3-|


Chorus (?..not fade away?)
G- ----------------|
D- ----------------|
A- 777--5----------|
E- ----------7/6-5-|

Guitar Solo
G- ---------------------|
D- -999--7--------------|
A- -----------9/8---7---|
E- ---------------------|

Main Riff- x8
Chorus- x4
Main Riff- x8
Chorus- x4
Guitar Solo- x9
Chorus- x13

Very easy and repetitive song, enjoy :).

ACORDES PARA GUITARRA

PIANO UKELELE


COMENTARIOS

Aún no hay comentarios,

¡escribe el primero!

Escribe una pregunta, duda o comentario sobre esta canción, te responderemos a la brevedad.

Las más tocadas de The Rolling Stones

Toca una Canción al Azar de The Rolling Stones