Oh No, Not You Again
The Rolling Stones
Acordes

Subida por bernardorv
Álbum: A Bigger Bang ( 2005)



Cambiar Cifrado
Americano Latino

Cambiar Tonalidad
-1 +1

Partir Pantalla Imprimir FAQ

+A
-A
Intro:

E|---2----|
B|-2-3----|
G|-2-2----|
D|-2-0----|
A|-0------|
E|--------|

E|-----------2----|
B|-2-2-2-2-2-3----|
G|-2-2-2-2-2-2----|
D|-2-2-2-2-2-0----|
A|-0-0-0-0-0------|
E|----------------| 4x

E|----|
B|-2--|
G|-2--|
D|-2--|
A|-0--|
E|----|

Verse:

A A A G G G F# F# E G G A A
E|----------------------------------------------------------|
B|----------------------------------------------------------|
G|----------------------------------------------------------|
D|-7-7----7-7-7---5-5----5---5-5---4-4---2-2---5-5--5---7-7-|
A|-7-7----7-7-7---5-5----5---5-5---4-4---2-2---5-5--5---7-7-|
E|-5-5----5-5-5-0-3-3----3-0-3-3-0-2-2---0-0---3-3--3-0-5-5-|

A A
Here you stand before me
A G G
Waiting to be kissed
G F# F#
You're beauty
E E
Such a cutie
G G A A
How could I resist?

It's been a month of Sundays
Since we last have spoke
So much water
You've got daughters
I fell out the boat

Chorus:

D
Oh no, not you again
A
Fucking up my life
G
It was bad the first time
D A
I can't stand it twice
D
Oh no, not you again
A
I can't stand the pace
G
Once bitten twice shy
D A
Let me out the race


Verse:

The setting's so romantic
Love is in the air
All is perfect
But I'm allergic
To your piercing stares

You look so cool and tempting
In your couture dress
You're addictive
As predicted
I'm nervous, I confess

Chorus:

Oh no, not you again
Messing up my life
It was bad the first time
You had me in a vice
Oh no, not you again
I hear the inner shout
It was bad the first time around
When you turned me inside out

Solo (over chorus):

D
E|-10-10-10-10----------|
B|-10-10-10-10---12b13--|
G|---------------12b14--|
D|----------------------|
A|----------------------|
E|----------------------|

A
E|-13-12-10-------------------------------------------------|
B|-13-12-10-12b13r12-10-12-10-12b13r12-10-12b13r12----10----|
G|----------12b14b12-10-12-10-12b14r12-10-12b14r12----10----|
D|-------------------------------------------------12----12-|
A|----------------------------------------------------------|
E|----------------------------------------------------------|

G
E|-----------------------------10-------------|
B|-10-10-----10----10-------10----13r12-10----|
G|-10-10-----10----10-12b14-------14r12-10----|
D|-------12-----12-------------------------12-|
A|--------------------------------------------|
E|--------------------------------------------|

D A
E|------------------------------------10--|
B|-10-10-10----10-10-12-12b13------10-----|
G|-10-10-10----10-10-12-12b14---12--------|
D|----------12----------------------------|
A|----------------------------------------|
E|----------------------------------------|

Verse:

Everybody's talking
Showing off their wit
The moon is yellow
I'm like jello
Staring down your tits

My life flashes forward
Then it flashes back
I'm still dreaming
And I'm screaming
Get me off the rack

Chorus:

Oh no, not you again
I can't stand the pain
I was burnt the first time
I can't deal again
Oh no, not you again
Messing up my life
Once bitten twice shy
I can't do it twice

Oh no, not you again
Fucking up my life
It was bad the first time around
I better take my own advice

Outro:

E|-------2----|
B|-2-2-2-3----|
G|-2-2-2-2----|
D|-2-2-2-0----|
A|-0-0-0------|
E|------------|

E|-----------2----|
B|-2-2-2-2-2-3----|
G|-2-2-2-2-2-2----|
D|-2-2-2-2-2-0----|
A|-0-0-0-0-0------|
E|----------------| 3x
Oh, nooooo!

E|----|
B|-2--|
G|-2--|
D|-2--|
A|-0--|
E|----|

ACORDES PARA GUITARRA

PIANO UKELELE
A
G
F#
E
D


COMENTARIOS

Aún no hay comentarios,

¡escribe el primero!

Escribe una pregunta, duda o comentario sobre esta canción, te responderemos a la brevedad.

Las más tocadas de The Rolling Stones

Toca una Canción al Azar de The Rolling Stones
A
G
F#
E
D