Paint it Black
The Rolling Stones
Acordes

Subida por abdias24


Más Versiones
Ver. 2 Ver. 3 Ver. 4 Ver. 5 Ver. 6
+A
-A
(intro)

(guitarra 1)
Dm
E|-1|--------0-----1-----3-----1-----0----|-----------------------0---------|-
B|-3|--3--------------------------------3-|-3-----2-----3/5-0h2h3---3p2p0-2-|-
G|-2|-----------------------------------2-|---------------------------------|-
D|-0|-----0-----0-----0-----0-----0-------|----0-----0----------------------|-
A|--|-------------------------------------|---------------------------------|-
E|--|-------------------------------------|---------------------------------|-

(intro - 0:11)

(guitarra 1)
Dsus2
E|-|------0-------------|--0-------------|-
B|-|------3-------------|--3-------------|-
G|-|------0-------------|--2-------------|-
D|-|------0-------------|--0-------------|-
A|-|------0-------------|--0-------------|-
E|-|--------------------|----------------|-
||
(guitarra2 - acoustica)
||
E|-|--------------------|----------------|-
B|-|------3-3--3--3--3--|----3--3--3--3--|-
G|-|------2-2--2--2--2--|----2--2--2--2--|-
D|-|------0-0--0--0--0--|----0--0--0--0--|-
A|-|------0-0--0--0--0--|----0--0--0--0--|-
E|-|--------------------|----------------|-

(verse - 0:14)

(guitarra 1)
E|-|----------0---1---|-3---1---0-----|--------------|---------------|-
B|-|------3-----------|-------------3-|-3--2---3-/-5-|-3---2-0h2-(2)-|-
G|-|------------------|---------------|--------------|---------------|-
D|-|--------0---0---0-|---0---0---0---|--------------|---------------|-
A|-|------------------|---------------|--------------|---------------|-
E|-|------------------|---------------|--------------|---------------|-
||
(guitarra2 - acoustico)
D5 A5 A#5 A5 A#5 A5
E|-|------------------|---------------|--------------|---------------|-
B|-|----3--3--3--3--3-|-3---3---3---3-|--------------|---------------|-
G|-|----2--2--2--2--2-|-2---2---2---2-|-(2)(2)(2)(2)-|-(2)(2)(2)(2)--|-
D|-|----0--0--0--0--0-|-0---0---0---0-|--2--2--3--2--|--2--2--3--2---|-
A|-|----0--0--0--0--0-|-0---0---0---0-|--0--0--0--0--|--0--0--0--0---|-
E|-|------------------|---------------|--------------|---------------|-
||
(arranjo na sitara para a guitarra 1)
E|-|------------------|-full----------|-full---------|-full----------|-
B|-|--------3--5--6---|6^(6)-6--5--3--|3^(33)2-3--5--|3^(33)2--------|-
G|-|------------------|---------------|--------------|---------------|-
D|-|------------------|---------------|--------------|---------------|-
A|-|------------------|---------------|--------------|---------------|-
E|-|------------------|---------------|--------------|---------------|-

Dm A
1. (riff 1) I see a red door and I want it painted black,
Dm A
(riff 1) no colors any more I want them to turn black.
Dm C F Dm
I see the girls walk by dressed in their summer clothes,
Dm C F C G A
I have to turn my head until the darkness goes.
Dm A
2. (riff 1) I see a line of cars and they're all painted black,
Dm A
(riff 1) with flowers and my love both never to come back.
Dm C F Dm
I see people turn their heads and quickly look away.
Dm C F C G A
like a new born baby it just happens every day.
Dm A
3. (riff 1) I look inside myself and see my heart is black,
Dm A
(riff 1) I see my red door and I want it painted black.
Dm C F Dm
Maybe then I'll fade away and not have to face the fact,
Dm C F C G A
it's not easy facing up when your whole world is black.
Dm A
4. (riff 1) No more will my green sea go turn a deeper blue,
Dm A
(riff 1) I could not forsee this thing happening to you.
Dm C F C Dm
If I look hard enough into the setting sun
Dm C F C G A
my love will laugh with me before the morning comes.
Dm A
5. (riff 1) I want to see your face, painted black, black as night
Dm A
Don't wanna see the sun flying high in the sky
Dm A
I wanna see it painted, painted, painted, painted black Yeah....////////////////// ¿Te Animas? Sube una canción a este sitio. //////////////////

ACORDES PARA GUITARRA

PIANO UKELELE
Dm
Dsus2
D5
A5
A#5
A
C
F
G


COMENTARIOS

Aún no hay comentarios,

¡escribe el primero!

Escribe una pregunta, duda o comentario sobre esta canción, te responderemos a la brevedad.

Las más tocadas de The Rolling Stones

Toca una Canción al Azar de The Rolling Stones
Dm
Dsus2
D5
A5
A#5
A
C
F
G