Respectable
The Rolling Stones
Acordes

Subida por rockyariel1
Álbum: Some Girls ( 1978)


Más Versiones
Ver. 2 Ver. 3 Ver. 4
+A
-A
*
TablEdited by Poppamies
Tuning : E A D G Time Signature: 4/4


| | | | | | | |
|--------------------------------|--------------------------------|
|-------------------Four bar intro without bass-------------------|
|--------------------------------|--------------------------------|
|--------------------------------|--------------------------------|

| | | | | | | |
|--------------------------------|----------------------------2---|
|--------4-------4---2-------2---|4---2-------2-------2---4-------|
|0-------------------------------|--------4-----------------------|
|--------------------------------|--------------------------------|

| | | | | | | |
|--------6-------6---4-------4---|6---------------------------9---|
|--------------------------------|----9---6---9-------9-----------|
|7-------------------------------|--------------------------------|
|--------------------------------|--------------------------------|

| | | | | | | |
|--------------------------------|----------------------------2---|
|--------4-------4---2-------2---|4---2-------2-------2---4-------|
|0-------------------------------|--------4-----------------------|
|--------------------------------|--------------------------------|

| | | | | | | |
|--------------------------------|----------------------------2---|
|--------4-------4---2-------2---|4---2-------2-------2---4-------|
|0-------------------------------|--------4-----------------------|
|--------------------------------|--------------------------------|

| | | | | | | |
|--------------------------------|----------------------------2---|
|--------4-------4---2-------2---|4---2-------2-------2---4-------|
|0-------------------------------|--------3-----------------------|
|--------------------------------|--------------------------------|

| | | | | | | |
|--------4-------4---2-------2---|4-----------------------4---7---|
|0-------------------------------|----7---4---7-------7-----------|
|--------------------------------|--------------------------------|
|--------------------------------|--------------------------------|

| | | | | | | |
|--------------------------------|--------------------------------|
|--------4-------4---2-------2---|4---2-------2-------2---4---2---|
|0-------------------------------|--------3-----------------------|
|--------------------------------|--------------------------------|

| | | | | | | |
|--------------------------------|2---2---------------------------|
|--------4-------4---2-------2---|--------4---2-------2---4---2---|
|0-------------------------------|----------------3---------------|
|--------------------------------|--------------------------------|

| | | | | | | |
|--------------------------------|----2-----------------------2---|
|--------4-------4---2-------2---|4-------4---2-------2---4-------|
|0-------------------------------|----------------3---------------|
|--------------------------------|--------------------------------|

| | | | | | | |
|--------------------------------|----------------------------2---|
|--------4-------4---2-------2---|4---2-------2-------2---4-------|
|0-------------------------------|--------3-----------------------|
|--------------------------------|--------------------------------|

| | | | | | | |
|--------------------------------|----------------------------2---|
|--------4-------4---2-------2---|4---2-------2-------2---4-------|
|0-----------------------3-------|--------3-----------------------|
|--------------------------------|--------------------------------|

| | | | | | | |
|--------4-------4---2-------2---|4-----------------------4---7---|
|0-------------------------------|----7---4---7-------7-----------|
|--------------------------------|--------------------------------|
|--------------------------------|--------------------------------|

| | | | | | | |
|--------------------------------|----------------------------2---|
|--------4-------4---2-------2---|4---2-------2-------2---4-------|
|0-----------------------3-------|--------3-----------------------|
|--------------------------------|--------------------------------|

| | | | | | | |
|--------6-------6---4-------4---|6-----------------------6---9---|
|------------------------6-------|----9---6---9-------9-----------|
|7-------------------------------|--------------------------------|
|--------------------------------|--------------------------------|

| | | | | | | |
|--------------------------------|----------------------------2---|
|--------4-------4---2-------2---|4---2-------2-------2---4-------|
|0-------------------------------|--------3-----------------------|
|--------------------------------|--------------------------------|

| | | | | | | |
|--------6-------6---------------|----------------------------11--|
|--------------------9-------9---|11--9-------9-------9---9-------|
|7-------------------------------|--------11----------------------|
|--------------------------------|--------------------------------|

| | | | | | | |
|--------------------------------|2---2-----------------------2---|
|--------4-------4---2-------2---|--------4---2-------2---4-------|
|0-------------------------------|----------------3-3-------------|
|--------------------------------|--------------------------------|

| | | | | | | |
|------------------------7---9---|--------7---9-------------------|
|--------7-------7---------------|7---------------7---7---9---7---|
|0-------------------------------|--------------------------------|
|--------------------------------|--------------------------------|

| | | | | | | |
|--------7---9-----------7---9---|--------7---9-------------------|
|7---------------7---------------|7---------------7---7---9---7---|
|--------------------------------|--------------------------------|
|--------------------------------|--------------------------------|

| | | | | | | |
|--------5---7-----------5---7---|--------5---7-------------------|
|0---------------0---------------|0---------------0---0-----------|
|--------------------------------|----------------------------0---|
|--------------------------------|------------------------7-------|

| | | | | | | |
|--------7---9-----------7---9---|--------7---9-------------------|
|7---------------7---------------|7---------------7---7-------7---|
|--------------------------------|------------------------9-------|
|--------------------------------|--------------------------------|

| | | | | | | |
|--------6-------6---4-------4---|6-----------------------6---9---|
|--------------------------------|----9---6---9-------9-----------|
|7-------------------------------|--------------------------------|
|--------------------------------|--------------------------------|

| | | | | | | |
|--------------------------------|--------------------------------|
|--------4-------4---2-------2---|---------and so on....----------|
|0-------------------------------|--------------------------------|
|--------------------------------|--------------------------------|

Transcribe! 6.0 transcription http://*
Created with TablEdit http://*
http://*?1058405404377

ACORDES PARA GUITARRA

PIANO UKELELE


COMENTARIOS

Aún no hay comentarios,

¡escribe el primero!

Escribe una pregunta, duda o comentario sobre esta canción, te responderemos a la brevedad.

Las más tocadas de The Rolling Stones

Toca una Canción al Azar de The Rolling Stones