Route 66
The Rolling Stones
Acordes

Subida por Frankurbina


Más Versiones
Ver. 2
+A
-A
                                                                           well if you          ever...
from...
g-----|--------------------|--------------------|-----------------|--------------------|-----------------|
d-----|-----4--------------|-----4--------------|-----4-----------|-----4--------------|*----4-----------|
a-----|--------7--4--------|--------7--4--------|--------7--4-----|--------7--4--------|*-------7--4-----|
e-----|--5-----------7--5--|--5-----------7--5--|--5-----------5--|--5-----------7--5--|--5-----------5--|


to motor west jack take... that's the high - way
to l. a. more than... thou - sand miles...
|-----4-------------|--------------------|------------------|-----4---------------|--7--4--------|
|--------7--4-------|-----4--------------|-----4------------|--------7--4---------|--------7--4--|
|--5-----------5----|--------7--4--------|--------7--4------|--5------------------|--------------|
|-------------------|--5-----------7--5--|--5-----------5---|---------------------|--------------|

uh get... route... fim da fig 1
|--------------------|--------------------|--------6--------|-----4--------|
|-----4--------------|--------4-----------|-----------9--6--|--------7--4--|
|--------7--4--------|-----------7--4-----|--7--7-----------|--5-----------|
|--5-----------7--5--|--5--5-----------5--|-----------------|--------------|

1________________________________________________ 2________________________
well it winds well
|---------------------|----------------------------|--------------------------|--------------------------|
|---------------4--4--|--5--5--4--4---------------*|--------------------4-----|--7--7--4--4--------------|
|-----4---7--7--------|--------------7--7--4------*|--------4--4--7--7-----7--|--------------7--7--4--4--|
|--5------------------|-----------------------5----|--5--5--------------------|--------------------------|

it goes... down to... oklahoma... see...
|----------------|-------------|--------------|--------------|--------4--------|--7--7--4--------|
|----------------|-------------|--------------|--------------|-----------7--4--|-----------7--4--|
|----------------|-------------|--------------|-----2--3--4--|--5--5-----------|-----------------|
|--5-------------|--5----------|--5-----------|--5-----------|-----------------|-----------------|

gallup... forget... kingman...
|-----------------|-----------------|-----6--------|-----6--------|--------------6-----|--9--7--7---------|
|--------4--------|--7--7--4--------|--------9--6--|--------9--6--|-----6--6--9-----9--|-----------9---6--|
|-----------7--4--|-----------7--4--|--7-----------|--7-----------|--7-----------------|------------------|
|--5--5-----------|-----------------|--------------|--------------|--------------------|------------------|

Verso com fig 1
solo de guitarra
|--------------|--------------|--------------|--------------|--------------|--------------|-----7--7--5--4--4--|
|--7--5--4--3--|--------------|-----7--5--4--|--------------|-----7--5--4--|--------------|--------------------|
|--------------|--7--5--4-----|--------------|--7--5--4-----|--------------|--7--5--4-----|--5-----------------|
|--------------|-----------7--|--5-----------|-----------7--|--5-----------|-----------7--|--------------------|

|--------------|--------------|--------------------|-----6--------|--------------|--------9--9--7--7--5--5--|
|--7--5--4-----|--7--4-----4--|--7--7--4-----------|--------9--6--|-----4--7--4--|--7--7--------------------|
|-----------7--|--------7-----|-----------7--4--4--|--7-----------|--5-----------|--------------------------|
|--------------|--------------|--------------------|--------------|--------------|--------------------------|

coda
well well get... route well get...
|---------------------|--------------|--------------|-----6--------|-----4--------|--------------|--------------|
|--7--7--5--5---------|--7--5--4--3--|-----4--5--6--|--------9--6--|--------7--4--|--7--5--4--3--|-----4--5--6--|
|--------------7---4--|--------------|--7-----------|--7-----------|--5-----------|--------------|--7-----------|
|---------------------|--------------|--------------|--------------|--------------|--------------|--------------|

on route...
|--------------------------|-----4-----------|--------------|--------------|-----|
|--------6--6--9--9--6--6--|--------7--4-----|--7--5--4--3--|--------------|-----|
|--7--7--------------------|--5-----------5--|--------------|--7--7--7-----|-----|
|--------------------------|-----------------|--------------|-----------5--|--5--|

ACORDES PARA GUITARRA

PIANO UKELELE


COMENTARIOS

Aún no hay comentarios,

¡escribe el primero!

Escribe una pregunta, duda o comentario sobre esta canción, te responderemos a la brevedad.

Las más tocadas de The Rolling Stones

Toca una Canción al Azar de The Rolling Stones