Compartir


Imprimir FAQ
+A
-A

Texto

Desplazamiento

Transportador

Color de Fondo

Archivos

-A
+A
(Verse)
G-----------------------------------------|
D-------------------2---------------------|
A-------2-------2------1-1-0-1-1-0--------|
E--0-4----0-4-----------------------------|

(Chorus)
G----------------------------------------------------|
D------------------21-----------------------12-------|
A--0-0-00-2222-----2-------2------2--2---------------|
E--------------------------0-4---0-4-----------------|

(Break)
G--------------------------------------------------------------------------|
D--------------------------------------------------------------------------|
A--4444---7777----6-----5--000000000000000---------------------------------|
E------------------6------5------------------------------------------------|

G--------------------------------------------------------------------------|
D--------------------------------------------------------------------------|
A--4444--777------66-----55-0000000022222222-------------------------------|
E-----------------66-----55------------------------------------------------|

There's a variation of the verse after the break
G-------------------------------------------|
D-------------2-1---------------------------|
A--------2--------2-------------------------|
E---0 4-----0---------1-1-0-1-1-0-----------|

Structure
Verse x4
Chorus
Verse x6
Chorus
Verse x6
Chorus
Verse x2
Break
Verse x4
Chorus to end

Video Clip de Shattered


ACORDES PARA GUITARRA

PIANO UKELELE


TOP 20: Las más tocadas de The Rolling Stones


Acordes

Cerrar

15.37

x

76