She's so cold
The Rolling Stones
Acordes

Subida por Nissi
Álbum: Emotional Rescue ( 1980)


Más Versiones
Ver. 2 Ver. 3 Ver. 4
+A
-A

Intro

E|-----------------|----------------------------------|
B|----------------|----------------------------------|
G|----------------|--5-5-5-5-5-------------------|
D|----------------|--5-5-5-5-5--5-5-5-5-5-----| x 3
A|----------------|--3-3-3-0-3--5-5-5-5-5-----|
E|-3-3-3-0-3--|-----------------3-3-3-0-3-----|


Progresion

G5 C5 F5
E|----------------------------------------------
B|----------------------------------------------
G|------------------5-5-5-5-5--5-5-5-5-5-
D|---5-5-5-5-5--5-5-5-5-5--3-3-3-0-3-
A|---5-5-5-5-5--3-3-3-0-3----------------
E|---3-3-3-0-3------------------------------


Lyric

G5 C5
I'm so hot for her, i'm so hot for her
F5 G5
i'm so hot for her and she's so cold
C5
i'm so hot for her, i'm on fire for her
F5 G5
i'm so hot for her and she's so cold
C5
I'm the burning bush, i'm the burning fire
F5 G5
i'm the bleeding volcano
C5
i'm so hot for her, i'm so hot for her
F5 G5
i'm so hot for her and she's so cold


Yeah, i tried re-wiring her, tried re-firing her
i think her engine is permanently stalled
she's so cold she's so cold
she's so cold cold cold
like a tombstone
she's so cold, she's so cold
she's so cold cold cold like an ice cream cone
she's so cold she's so cold
i dare not touch her my hand just froze


Yeah, i'm so hot for hot for her, i'm so hot for her
i'm so hot for her and even so
put your hand on the heat, put your hand on the heat
aw c'mon baby, let's go
She's so cold, she's so cold, cold, she's so c-c-c-old
but she's beautiful, though

Yeah, she's so cold

Solo

She's so cold, she's so cold
she was born in an arctic zone
she's so cold she's so cold, cold, cold
i dare not touch her my hand just froze
She's so cold, she's so goddamn cold she's so
cold cold cold she's so cold

Who would believe you were a beauty indeed
when the days get shorter and the nights get long
lie awake when the rain comes
nobody will know, when you're old
when you're old, nobody will know
that you was a beauty, a sweet sweet beauty
a sweet sweet beauty, but stone stone cold
You're so cold, you're so cold, cold, cold
you're so cold, you're so cold
I'm so hot for you, i'm so hot for you
i'm so hot for you and you're so cold
I'm the burning bush, i'm the burning fire
i'm the bleeding volcano

ACORDES PARA GUITARRA

PIANO UKELELE
G5
C5
F5


COMENTARIOS

Aún no hay comentarios,

¡escribe el primero!

Escribe una pregunta, duda o comentario sobre esta canción, te responderemos a la brevedad.

Las más tocadas de The Rolling Stones

Toca una Canción al Azar de The Rolling Stones
G5
C5
F5