Sittin` On a Fence
The Rolling Stones
Acordes

Subida por verache


Más Versiones
Ver. 2 Ver. 3 Ver. 4

Cambiar Cifrado
Americano Latino

Cambiar Tonalidad
-1 +1

Partir Pantalla Imprimir FAQ

+A
-A
Album: Flowers - 1967


Introdução:

E|------7--9--10--10--10--9--7--7--7--7------------------------------|
B|--10-----------------------------------10---------7--7-------------|
G|-------------------------------------------8--10--------10--10--8--|
D|-------------------------------------------------------------------|
A|-------------------------------------------------------------------|
E|-------------------------------------------------------------------|

E|--0--0--0--0--0--0--0--0----0--0--0--0----0--0--0--0----0--0--0--0----0--0--0--0---------|
B|-----------------------------------------------------------------------------------------|
G|--7--7--7--7--6--6--6--6--6/7--7--7--7--6/7--7--7--7--6/7--7--7--7--6/7--7--7--7---------|
D|-----------------------------------------------------------------------------------------|
A|-----------------------------------------------------------------------------------------|
E|-----------------------------------------------------------------------------------------|

A D A
Since I was young I've been very hard to please
D E
And I don't know wrong from right
D
But there is one thing I could never understand
G
Some of the sick things that a girl does to a man, so

D A E
I'm just sitting on a fence
A D E
You can say I got no sense
A D
Trying to make up my mind
E A
Really is too horrifying
D E A
So I'm sitting on a fence

A D A
All of my friends at school grew up and settled down
D E
And they mortgaged up their lives
D
One things not said too much, but I think it's true
G
They just get married cause there's nothing else to do, so

D A E
I'm just sitting on a fence
A D E
You can say I got no sense
A D
Trying to make up my mind
E A
Really is too horrifying
D E A
So I'm sitting on a fence

(A D E A E A A E A E A E)

D A E
I'm just sitting on a fence
A D E
You can say I got no sense
A D
Trying to make up my mind
E A
Really is too horrifying
D E A
So I'm sitting on a fence

D E A
The day can come when you get old and sick and tired of life
D A E
You just never realize
D
Maybe the choice you made wasn't really right
G
But you go out and you don't come back at night, so

D A E
I'm just sitting on a fence
A D E
You can say I got no sense
A D
Trying to make up my mind
E A
Really is too horrifying
D E A
So I'm sitting on a fence

(A D E A E A A E A E A E A)

ACORDES PARA GUITARRA

PIANO UKELELE
A
D
E
G


COMENTARIOS

Aún no hay comentarios,

¡escribe el primero!

Escribe una pregunta, duda o comentario sobre esta canción, te responderemos a la brevedad.

Las más tocadas de The Rolling Stones

Toca una Canción al Azar de The Rolling Stones
A
D
E
G