Stoned
The Rolling Stones
Acordes

Subida por orlando


Más Versiones
Ver. 2
+A
-A
This song is a simple but effective 12 bar blues


G:-------------------------------------------5---------5--------
D:---5---------5---------5---------5--------0-5-3-5---0-5-3-5---
A:--0-5-3-5---0-5-3-5---0-5-3-5---0-5-3-5-----------------------
E:--------------------------------------------------------------


G:--------------------------------5-----------------------------
D:---5---------5-----------------0-5-3-5----5-------------------
A:--0-5-3-5---0-5-3-5----5-----------------0-5-3-5--------------
E:----------------------0-5-3-5----------------------5----------
stoned....



G:-------------------------------------------5---------5--------
D:---5---------5---------5---------5--------0-5-3-5---0-5-3-5---
A:--0-5-3-5---0-5-3-5---0-5-3-5---0-5-3-5-----------------------
E:--------------------------------------------------------------


G:--------------------------------5-----------------------------
D:---5---------5-----------------0-5-3-5----5-------------------
A:--0-5-3-5---0-5-3-5----5-----------------0-5-3-5--------------
E:----------------------0-5-3-5----------------------5----------
out of my mind...


just keep this going until the end of the song

ACORDES PARA GUITARRA

PIANO UKELELE


COMENTARIOS

Aún no hay comentarios,

¡escribe el primero!

Escribe una pregunta, duda o comentario sobre esta canción, te responderemos a la brevedad.

Las más tocadas de The Rolling Stones

Toca una Canción al Azar de The Rolling Stones