Streets of love
The Rolling Stones
Acordes

Subida por NicolasRodas
Álbum: A Bigger Bang ( 2005)


Más Versiones
Ver. 2 Ver. 3 Ver. 4

Cambiar Cifrado
Americano Latino

Cambiar Tonalidad
-1 +1

Partir Pantalla Imprimir FAQ

+A
-A
Intro:

C Em7 Em F
E|---------0---------0---------0--------1--1|
B|-------------------------------------1----|
G|------0----------0------------------2-----|
D|----2----------0-----------2-------3------|
A|---3---------2-----------2--------3-------|
E|-----------------------0---------1--------|


Verso:
C Em7
You're awful bright, you're awful smart
Em F
I must admit you broke my heart
C Em7
The awful truth is really sad
Em F
I must admit I was awful bad

C G
While lovers laugh and music plays
Am G
I stumble by and I hide my pain
F G
The lights are lit, the moon is gone
F G
I think I've crossed the Rubicon

Refrão:
C G Am
I, I walk the streets of love
F
and they're full of tears
C G Am
And I, I walk the streets of love
F
and they're full of fears


C Em7
While music pumps from passing cars
Em F
A couple watched me from above
C Em7
A band just played the wedding march
Em F
And the cornerstore mends broken hearts

C
The woman ends
Em7
If for her debts
Em
It's free of charge
F
Just one more chance

C G Am
I, I walk the streets of love
F
and they're full of tears
C G Am
And I, I walk the streets of love
F
and they're full of fears


Solo: C G Am F
E|-------------------------------------------------------------------|
B|----3-1-0-1----3-1-0-1----3-1-0-1----------------------------------|
G|-----------------------------------4--2----------------------------|
D|-------------------------------------------------------------------|
A|-------------------------------------------------------------------|
E|-------------------------------------------------------------------|

E|-------------------------------------------------------------------|
B|----3-1-0-1----3-1-0-1---------------------------------------------|
G|-----------------------------------4--2----0-----------------------|
D|----------------------------------------2--------------------------|
A|-------------------------------------------------------------------|
E|-------------------------------------------------------------------|

C Em7
You had the moves, you had the cards
Em F
I must admit you were awful smart
C Em7
The awful truth is awful sad
Em F
I must admit I was awful bad

C G Am
I, I walk the streets of love
F
and they're full of tears
C G Am
And I, I walk the streets of love
F
and they're full of fears

ACORDES PARA GUITARRA

PIANO UKELELE
C
Em7
Em
F
G
Am


COMENTARIOS

Aún no hay comentarios,

¡escribe el primero!

Escribe una pregunta, duda o comentario sobre esta canción, te responderemos a la brevedad.

Las más tocadas de The Rolling Stones

Toca una Canción al Azar de The Rolling Stones
C
Em7
Em
F
G
Am