Sweet Virginia
The Rolling Stones
Acordes

Subida por RandallDes
Álbum: Exile on Main St. ( 1972)


Más Versiones
Ver. 2 Ver. 3 Ver. 4 Ver. 5
+A
-A
INTRO
G D G
E|-------3-3-3-------2-2-2---------3-3-3---------3-3-3-|
B|-----0-0-0-0-------3-3-3---------0-0-0---------0-0-0-|
G|---0---0-0-0-----0-2-2-2---2---0-0-0-0---0---0-0-0-0-|
D|-0-----0-0-0-0h2---0-0-0---------0-0-0---------0-0-0-|
A|-------2-2-2-----------------3---2-2-2-3---2---2-2-2-|
E|-------3-3-3-------------2-------3-3-3---------3-3-3-|

2x

C A7 G
E|---------0-0-0---------0-0-0---------3-3-3-3-|
B|---------1-1-1---------2-2-2---------0-0-0-0-|
G|---0---0-0-0-0---0---0-0-0-0---0---0-0-0-0-0-|
D|---------2-2-2---------2-2-2---------0-0-0-0-|
A|-0---2---3-3-3-3---2---0-0-0---------2-2-2-2-|
E|-----------------------------0---2---3-3-3-3-|

C A7 G
E|---------0-0-0---------0-0-0---------3-3-|
B|---------1-1-1---------2-2-2---------0-0-|
G|---0---0-0-0-0---0---0-0-0-0---0---0-0-0-|
D|---------2-2-2---------2-2-2---------0-0-|
A|-0---2---3-3-3-3---2---0-0-0---------2-2-|
E|-----------------------------0---2---3-3-|

C G D G
E|-------------0-0-------------3-3-------------2-2---------3-3---------3-3---------|
B|-------------1-1-------------0-0-------------3-3---------0-0---------0-0---------|
G|-----0-----0-0-0-----0-----0-0-0-----0-----0-2-2---2---0-0-0---0---0-0-0---0---0-|
D|-------0h2---2-2-0h2---0h2---0-0-------0h2---0-0---------0-0---------0-0---------|
A|-0h2---------3-3-------------2-2-0h2-----------------0---2-2-3---2---2-2-0---2---|
E|-----------------------------3-3-----------------0-------3-3---------3-3---------|

C A7 G
Wading through the waste stormy winter
C A7 G
And there's not a friend to help you through
C A7 G C
Trying to stop the waves behind your eyeballs
G D G
Drop your reds drop your greens and blues

C A7 G
Thank you for your wine, California
C A7 G
Thank you for your sweet and bitter fruits
C A7 G C
Yes, I've got the desert in my toenail
G D G
And hid the speed inside my shoe

C A7 G
But come on come on down Sweet Virginia
C A7 G
Come on honey child I beg of you
C A7 G C
Come on come on down you got it in you
G D G
Got to scrape that shit right off your shoes


Sax solo: C A7 G C A7 G C A7 G C G D G


C A7 G
But come on come on down Sweet Virginia
C A7 G
Come on honey child I beg of you
C A7 G C
Come on come on down you got it in you
G D G
Got to scrape that shit right off your shoes

One more time!

C A7 G
But come on come on down Sweet Virginia
C A7 G
Come on honey child I beg of you
C A7 G C
Come on come on down you got it in you
G D G
Got to scrape that shit right off your shoes

ACORDES PARA GUITARRA

PIANO UKELELE
G
D
C
A7


COMENTARIOS

Aún no hay comentarios,

¡escribe el primero!

Escribe una pregunta, duda o comentario sobre esta canción, te responderemos a la brevedad.

Las más tocadas de The Rolling Stones

Toca una Canción al Azar de The Rolling Stones
G
D
C
A7