Tell Me
The Rolling Stones
Acordes

Subida por pocho


Más Versiones
Ver. 2 Ver. 3 Ver. 4 Ver. 5 Ver. 6
+A
-A
                           i                                         i
you you
i wait... by i
g-----|-----|-----|-----|-------|-------------|-----|-------------|-----------------|-----------------|
d-----|-----|-----|-----|*------|-------------|-----|-------------|-----------------|-----------------|
a-----|--1--|--1--|--1--|*-1----|--1---1---1--|-----|-------------|--1---1---1---1--|--1---1---1---1--|
e-----|-----|-----|-----|-------|-------------|--1--|--1---1---1--|-----------------|-----------------|

i know... find... me
i tried... you... know
i hear... knock... comes
|-----|-----------------|----------------|----------------|----------------|----------------|
|-----|-----------------|--0---0--0---0--|--1---1--1---1--|--3---3--3---3--|----------------|
|-----|-----------------|----------------|----------------|----------------|--1---1------1--|
|--1--|--1---1---1---1--|----------------|----------------|----------------|---------1------|

|-----------------|-----------------|----------------|-----------------|
|--0---0---0---0--|--1---1---1---1--|--2---2--2---2--|--3---3---3---3--|
|-----------------|-----------------|----------------|-----------------|
|-----------------|-----------------|----------------|-----------------|

tell me... tell me... back...
|-----------------|-----------------|--0---0---0---0--|--0---0---0---0--|-----------3---3--|
|-----------------|-----------------|-----------------|-----------------|--1-----1---------|
|--1-----------1--|--1-----------1--|-----------------|-----------------|------------------|
|--------1--------|--------1--------|-----------------|-----------------|------------------|

|-----------3---3--|----------------|para
|--1-----1---------|--3---3--3---3--|o
|------------------|----------------|coda
|------------------|----------------|1,2,3

back to me
|----------------|--3---3-----|--3---3------3--|----------------|---------------|
|--3---3--3---3--|---------3--|---------3------|--3---3---------|--3---3-----3--|
|----------------|------------|----------------|---------3---3--|---------3-----|
|----------------|------------|----------------|----------------|---------------|

|--3---3-----|--3---3------3--|----------------|---------------|
|---------3--|---------3------|--3---3---------|--3---3-----3--|
|------------|----------------|---------3---3--|---------3-----|
|------------|----------------|----------------|---------------|

|----------------|----------------|------------|--3---3---3--|-----------------|-----------------|
|--0---0--0---0--|--1---1--1---1--|--3---3--3--|-------------|--0---0---0---0--|--1---1---1---1--|
|----------------|----------------|------------|-------------|-----------------|-----------------|
|----------------|----------------|------------|-------------|-----------------|-----------------|

you got..
|-----------------|-----------------|
|--2---2---2---2--|--3---3---3---3--|
|-----------------|-----------------|
|-----------------|-----------------|

Coda 1 coda 2 coda 3
back... back... back...
|----------------|----------------|----------------|
|--3---3--3---3--|--3---3--3---3--|--3---3--3---3--|
|----------------|----------------|----------------|
|----------------|----------------|----------------|

|--3--------|--3---3------3--|--0--------|
|--------3--|---------3------|--------0--|
|-----------|----------------|-----------|
|-----------|----------------|-----------|

ACORDES PARA GUITARRA

PIANO UKELELE


COMENTARIOS

Aún no hay comentarios,

¡escribe el primero!

Escribe una pregunta, duda o comentario sobre esta canción, te responderemos a la brevedad.

Las más tocadas de The Rolling Stones

Toca una Canción al Azar de The Rolling Stones