Wild Horses
The Rolling Stones
Acordes

Subida por Carlos23
Álbum: Sticky Fingers ( 1971)


Más Versiones
Ver. 2 Ver. 3 Ver. 4 Ver. 5 Ver. 6
+A
-A
 (guitar 1)
G Am G Am G
E|-3----3--------3----0--0-0--0--0-0--0-----3-3-----3----0-0-0-0-------------------|
B|-3--3--3-------3----1--1-1--1--1-1--1-----3-3-3---3----1-1-1-1-------------------|
G|-0--0---0------0----2--2-2--2--2-2--2-----0-0-0---0----2-2-2-2---2/4--2--0--2----|
D|-0--0----0-----0----2--2-2--2--2-2--2-----0-0-0---0----2-2-2-2-------------------|
A|-2--------2----2----0--0-0--0--0-0--0-----2-2-----2----0-0-0-0-------------------|
E|-3---------3-3---3------------------------3-----3---3--------------------------3-|

(guitar 2) |
E|--------------------------------10---8----7-----------------(7)/10-10-10-10-8--7-|
B|--------------------------------12---10---8-----------------(8)/12-12-12-12-10-8-|
B|---------------------------------------------------------------------------------|
D|---------------------------------------------------------------------------------|
A|---------------------------------------------------------------------------------|
E|---------------------------------------------------------------------------------|

Child________hood living
Bm G Bm
E|--3------3--3------2---2--2---2---------------3-3-----3-------------2------------|
B|----3----3----3----3---3--3---3---------------3-3-----3---3---------3------------|
G|------0--0------0--4---4--4---4-------------------------------0-----4------------|
D|-------------------4---4--------------------------------------------4------------|
A|-------------------2----------------2--0----------------------------2------------|
E|--------(3)--------------------------------3-------------------------------------|

is e____asy to do the things you
Am
E|---2--2----------------------------------------------0--0-------0-----0----------|
B|---3--3--3--------------------3----------------------1--1--1----1-----0----------|
G|---4----------------------2/4---42-0----------------2--2--2----2-----0----------|
D|---------------------------------------2--0----------2--2--2----2-----0----------|
A|--------------------------------------------0h2-0----0---------------------------|
E|---------------------------------------------------------------------------------|

Wanted I Bought them for you grace__
C G D Bm
E|-0--0-0-0-----------------3-3-3-3-3--------------------------------------2-2-2-2-|
B|-1--1-1-1-----------------3-3-3-3-3---------------3-3---3-3--------------3-3-3-3-|
G|-2--2-2-2------2r0--------0-0---0-0---------------2-2---2-2-0h2----------4-4-4-4-|
D|-0--0-0-0-----------0-----0-----------------------0-0-0---0----------------4-----|
A|-3--------------------------------------------------------------------2----------|
E|------------3----------3---------------------------------------------------------|

__less lady you know how I am You know I can't
G Bm G Am
E|---------------------------2-2-2-2-2-2-----------3-3-3-3------0-0-0-0-0--0-------|
B|--------3------3-----------3-3-3-3-3-3-----------3-3-3-3----1-1-1-1-1-1--0-------|
G|--------0--2/4---42-0-----4-4-4-4-4-4-----------0-0-0-0-0--2-2-2-2-2-2--0-------|
D|--------0--------------------4-4-4---------------0-0--------2-2-2-2---2--0-------|
A|-2r0--------------------2-----------------------------------0--------------------|
E|------3----------------------------------------3---------------------------------|

let you slide through my hands_______
C G D
E|-0-----------------------3--3-3-3-3--3-----2--2-----2----------------------------|
B|-1-----------------------3--3-3-3-3--3-----3--3-----3----------------------------|
G|-2-----0-----------------0--0-0-0-0--0-----2--2-----2----------------------------|
D|-0-0h2---2r0---0h2-0-----0----0-0----0-----0--0-----0----------------------------|
A|-3-------------------------------------------------------------------------------|
E|-------------3-------3-----------------------------------------------------------|
| |
E|---------------------------------------------------------------------------------|
B|----------10r8-------------------------------------------------------------------|
G|-----------------9r7-------------------------------------------------------------|
D|---------------------------------------------------------------------------------|
A|---------------------------------------------------------------------------------|
E|---------------------------------------------------------------------------------|

(refrão)
Am C
Wild Horses,
D G F C Am7/B
Couldn't drag me away,
Am C
Wild, wild horses,
D G F C
Couldn't drag me away...

Bm G
I watched you suffer
Bm G
a dull, aching pain
Am C
Now you decided
G D
to show me the same
Bm G
No sweeping exits
Bm G
or offstage lines,
Am C
Can make me feel bitter
G D
or treat you unkind

(refrão)

Bm G
I know I dreamed you
Bm G
a sin and a lie,
Am C
I have my freedom
G D
but I don't have much time
Bm G
Faith has been broken
Bm G
tears must be cried,
Am C
Let's do some living
G D
after we die

Am C
Wild Horses,
D G F C Am7/B
couldn't drag me away.
Am C
Wild, wild horses,
D G F C
we'll ride them someday

ACORDES PARA GUITARRA

PIANO UKELELE
G
Am
Bm
C
D
F
Am7/B


COMENTARIOS

Aún no hay comentarios,

¡escribe el primero!

Escribe una pregunta, duda o comentario sobre esta canción, te responderemos a la brevedad.

Las más tocadas de The Rolling Stones

Toca una Canción al Azar de The Rolling Stones
G
Am
Bm
C
D
F
Am7/B