Passion (Acordes)

The Rumour Said Fire

Subida por Abelardo

Compartir


Imprimir FAQ
+A
-A

Texto

Desplazamiento

Transportador

Color de Fondo

Archivos

-A
+A
The bridge is not perfect at all, so feel free to leave any corrections as a response.!


Intro:
CAPO 5:
E |----------------------------|
B |--3s-1--3--5--5-----3-------|
G |----------------------------|
D |----------------------------|
A |----------------------------|
E |----------------------------|


--1-------------------------------------------------|
--------5-----3-----1-----0-----------------0h-1----|
----------------------------------------------------|
----------------------------------------------------|
----------------------------------------------------|
----------------------------------------------------|


----------------------------------------------------|----------------|----||
--3-----5-----3-----1-------------------------------|--0-------------|----||
--------------------------0-----------------0h-2----|-----0--2-------|----||
----------------------------------------------------|----------------|----||
----------------------------------------------------|----------------|----||
----------------------------------------------------|----------------|----||

Capo 5:

Am
 It's the passion that keeps our hands together
 C           D
 during this great sleep
Am                                     C 
 It's a test drive: The human love for pleasure
   G         D7
 A nature so foolish



Am                                      
 Take your suitcase from underneath the floorboards;
        C             D
 we are leaving these settings
Am                                    C
 'Cause what will it take to halt the mug here?
      G            D7
 Your words are at war, dear


C        D         C          D           C
 And our love roams through a vivid fantasy
        D              Em         D
 Please take me to the depths of sanity
C    D         C        D                   C
 The hate glows in your face when you can't sleep
           D             Em
 There's a war inside your dreams



Am                                              
 It's the passion that takes us to the party 
       C          D
 where everyone's dancing
Am                  
 And the steps go on and on
           C               G               D7
 and these people make you think like the insane



Bm                 C                   G
 And jump out the windows to label the sun:
               D
 you're out of love
Bm                C                           
 You feel like a poet in the morning screaming:
G                      D
 I'm just a loser like God!



Am                                                             
 But it's the passion that keeps our hands together 
C            D
 during this great sleep
Am                              
 And the kid who pulls a gun
      C                G             D7
 will tell you what is fun until the ashes



C        D         C          D           C
 And our love roams through a vivid fantasy
        D              Em         D
 Please take me to the depths of sanity
C    D         C        D                   C
 The hate glows in your face when you can't sleep
           D             Em
 There's a war inside your dreams



C        D         C          D           C
 And our love roams through a vivid fantasy
        D              Em         D
 Please take me to the depths of sanity
C        D         C      D              C 
 And the hate glows as he pulls the iron fist
         D           Em 
 And you fall into a dream.

Video Clip de Passion


ACORDES PARA GUITARRA

PIANO UKELELE
Am
C
D
G
D7
Em
Bm


TOP 20: Las más tocadas de The Rumour Said Fire


Acordes

Cerrar
Am
C
D
G
D7
Em
Bm

06.26

x

377