A Comet Appears
The Shins
Acordes

Subida por Materick
Álbum: Wincing the Night Away ( 2007)



Cambiar Cifrado
Americano Latino

Cambiar Tonalidad
-1 +1

Partir Pantalla Imprimir FAQ

+A
-A


Ver solo la LETRA
    (Tabbed by w7w7w7)



Intro
G|----------7--------7--------------7----(7)-----6-|
D|-9--7--5-----9--7-----7--9--7--5-----5-----7--9--|
A|-------------------------------------------------|
E|-------------------------------------------------|



Verse
G|----------7--------7--------------7----(7)-----6-|
D|-9--7--5-----9--7-----7--9--7--5-----5-----7--9--|
A|-------------------------------------------------|
E|-------------------------------------------------|

G|----------7--------7--------------7-----7-----7-----7--------------|
D|-9--7--5-----9--7-----7--9--7--5-----7-----7-----7-----5--77777777-|
A|-------------------------------------------------------------------|
E|-------------------------------------------------------------------|



Chorus
G|----7--7----| |-----------------|
D|-5--------7-| |7777777-99999999-|
A|------------| x4 |-----------------|
E|------------| |-----------------|


Brige = Verse

Verse

Chorus


Outro
G|----------7--------7---|
D|-9--7--5-----9--7------|
A|-----------------------|
E|-----------------------|

ACORDES PARA GUITARRA

PIANO UKELELE


COMENTARIOS

Aún no hay comentarios,

¡escribe el primero!

Escribe una pregunta, duda o comentario sobre esta canción, te responderemos a la brevedad.

Las más tocadas de The Shins

Toca una Canción al Azar de The Shins