Young Pilgrims
The Shins
Acordes

Subida por RandyPiano2100prw
Álbum: Chutes Too Narrow ( 2003)


Más Versiones
Ver. 2

Cambiar Cifrado
Americano Latino

Cambiar Tonalidad
-1 +1

Partir Pantalla Imprimir FAQ

+A
-A


Ver solo la LETRA
From the album "Chutes too Narrow"
Tabbed by MattWV

/ - slide up
- slide down

Riff:
D
E|-----2-----|
B|-3-----3---|
G|---2-----2-|
D|-----------|
A|-----------|
E|-----------|

Verse:
D Bb G
E|----2-2---2------------3--3-|
B|----3-3---3-----3------3--3-|
G|----2-2---2-----3------0--0-|
D|-0------0-------3------0--0-|
A|-------------1--------------|
E|--------------------3-------|

D Bb C
E|----2-2---2-----------------|
B|----3-3---3-----3-----1-3-3-|
G|----2-2---2-----3-----0-0-0-|
D|-0------0-------3-----2-2-2-|
A|-------------1------3-------|
E|----------------------------|

D F A A7
E|---2-2---2--1-1-1--1-1-1-----------------|
B|---3-3---3--1-1-1--1-1-1--2-2-2--2-2-2-2-|
G|---2-2---2--2-2-2--2-2-2--2-2-2--0-0-0-0-|
D|-0-----0----3-3-3--3-3-3--2-2-2--2-2-2-2-|
A|-----------------------------------------|
E|-----------------------------------------|

Chorus:
G D A D
E|----3-----2-----------2-3-2-|
B|----3-----3-----2-----3-3-2-|
G|-0--------2-----2-----2-2-2-|
D|-------0--------2--0--------|
A|-------------0--------------|
E|----------------------------|

G D F A
E|----3-----2--1-1-1--0-0-0-0-|
B|----3-----3--1-1-1--2-2-2-2-|
G|-0--------2--2-2-2--2-2-2-2-|
D|-------0-----3-3-3--2-2-2-2-|
A|----------------------------|
E|----------------------------|
G D A D
E|----3-----2-----------2-3-2-|
B|----3-----3-----2-----3-3-2-|
G|-0--------2-----2-----2-2-2-|
D|-------0--------2--0--------|
A|-------------0--------------|
E|----------------------------|

G D F A A7
E|----3-----2--1-1-1--0-0-0-0---------|
B|----3-----3--1-1-1--2-2-2-2--2--2-2-|
G|-0--------2--2-2-2--2-2-2-2--0--0-2-|
D|-------0-----3-3-3--2-2-2-2--2--2-2-|
A|------------------------------------|
E|------------------------------------|

Bridge:
Bm D G A G A
E|-2-------------2------------3---0---3--0-------------|
B|-3-------------3------------3---2---3--2---2-2-3-3/5-|
G|-4-------------2------------0---2---0--2---2-2-2-----|
D|-4-------------0------------0---2---0--2-------------|
A|-----------------------------------------------------|
E|-----------------------------------------------------|

Bm D G A G A G A G A
E|-2-------------2------------3---0---3--0----3---0---3--0-|
B|-3-------------3------------3---2---3--2----3---2---3--2-|
G|-4-------------2------------0---2---0--2----0---2---0--2-|
D|-4-------------0------------0---2---0--2----0---2---0--2-|
A|---------------------------------------------------------|
E|---------------------------------------------------------|

Solo:
D Bb G
E|-----2------------------------------|
B|-3-----3-----65--------------------|
G|---2-----2-------7-5--5/7------2----|
D|---------------------------3-5------|
A|------------------------------------|
E|------------------------------------|

D Bb C
E|-----2--------------------------5---|
B|-3-----3-----65------------------7-|
G|---2-----2-------7-5--5/7-----------|
D|-----------------------------7------|
A|------------------------------------|
E|------------------------------------|

D F C A A7
E|-----2--------------------------------------------------------|
B|-3-----3-----5/6-5------------5/6--5--------------------------|
G|---2-----2----------7--5-------------7--5-5/7-6---------------|
D|--------------------------------------------------------------|
A|--------------------------------------------------------------|
E|--------------------------------------------------------------|

ACORDES PARA GUITARRA

PIANO UKELELE


COMENTARIOS

Aún no hay comentarios,

¡escribe el primero!

Escribe una pregunta, duda o comentario sobre esta canción, te responderemos a la brevedad.

Las más tocadas de The Shins

Toca una Canción al Azar de The Shins