Phantom Limb
The Shins
Acordes

Subida por Josejuarez
Álbum: Wincing the Night Away ( 2007)


Más Versiones
Ver. 2 Ver. 3
HERRAMIENTAS

Cambiar Cifrado
Americano Latino

Cambiar Tonalidad
-1 +1

Partir Pantalla Imprimir FAQ

Ver solo la LETRA

+A
-A
LETRA CON ACORDES

¿Tu Guitarra esta Afinada? PRUEBA NUESTRO NUEVO AFINADOR

   (Tabbed by w7w7w7)



Intro [disto/fuzz]
G|-----------------------------|
D|-----------------------------|
A|-----------------------------|
E|-5---55----5---55------------|



Verse
G|--------------------------------------------------------------------------------|
D|--------------------------------------------------------------------------------|
A|--------4--5---55/7-----------------------------4--5---55/7--5---55-------------|
E|-5---55--------------7---77----7---77/2--3---33---------------------5-----------|

G|--------------------------------------------------------------------------------|
D|--------4-----------------------------------------------------------------------|
A|-5---5-----7---77---------------------------------------------------------------|
E|------5-----------0--7---77----7---77-2-----------------------------------------|

G|--------------------------------------------------------------------------------|
D|--------------------------------------------------------------------------------|
A|--------4--5---55/7-------------------4--5---55/7--5---55-----------------------|
E|-5---55--------------5---55/2--3---33---------------------5---------------------|

G|----------------------------------------------- --------------------------------|
D|--------4-------------------------------------- --------------------------------|
A|-5---5-----7---77------------------------------ -------4-7----------------------|
E|------5-----------0--7---77----7---77-2/5---55- --5---5-------------------------|

                                                  --6---4-------------------------|
                                     2nd verse    ---------7----------------------|
                                        ending :  --------------------------------|
                                                  --------------------------------|



Chorus
G|--------------------------------------------------------------------------------|
D|--------------------------------------------------------------------------------|
A|-9---99--------------9--7---77----9---99-/12------------------------------------|
E|--------9--10---1010-----------9------------------------------------------------|

G|--------------------------------------------------------------------------------|
D|--------------------------------------------------------------------------------|
A|-9---99--------------9--7---77----7---77-4--------------------------------------|
E|--------9--10---1010-----------7------------------------------------------------|


Verse
Chorus x2


Bridge x4
G|--------------------------------------------------------------------------------|
D|--------------------------------------------------------------------------------|
A|--------7--5---55-9--7---77----7---77-4-----------------------------------------|
E|-5---55---------------------7---------------------------------------------------|


Chorus x2
Bridge x--> END////////////////// ¿Te Animas? Sube una canción a este sitio. //////////////////

ACORDES PARA GUITARRA

PIANO UKELELE


COMENTARIOS

Aún no hay comentarios,

¡escribe el primero!

Escribe una pregunta, duda o comentario sobre esta canción, te responderemos a la brevedad.

Las canciones más tocadas de The Shins

Toca una Canción al Azar de The Shins

16.25


Nuestro servidor se demoró 0.01 segundos en generar esta página. Eso fue realmente muy rápido!