Compartir


Imprimir FAQ
+A
-A

Texto

Desplazamiento

Transportador

Color de Fondo

Archivos

-A
+A
IMPORTANT! READ!
This Is An Underground Rock Band with Drummer Pat Wilson (WEEZER) If You
Need To Check Them Out Go to *



Tabbed by: Steve Lopez ([email protected]* - *)

If things look weird, stretch the window open all the way to fill up the screen. duh.

I'm just putting the notes down, the strumming is pretty straight-forward and you
all should be able to figure it out yourselves.

REVISED *: MAJOR OVERHAUL.  EVERYTHING HERE IS DIFFERENT THAN BEFORE.
NOW UP TO DATE WITH LATEST VERSION.

 _____
/Intro

Play twice through.

  ~clean tone~
   10   10   4    4    4   4       
E|-X-------------|-X-------------|-X---------------|-X-------|
B|-0-------------|-0-------------|-0---------------|-0-------|
G|-11------------|-11------------|-8---------------|-8-------|
D|-9-------------|-9-------------|-6---------------|-6-------|
A|-11------------|-11------------|-8---------------|-8-------|
E|-X-------------|-X-------------|-X---------------|-X-------|
       Drivin' down that brand new six-lane road again.


E|-X------------X-|-X-----|-X--------------------------X-|-X----|
B|-0------------0-|-0-----|-X--------------------------0-|-0----|
G|-8------------8-|-8-----|-8--------------------------8-|-8----|
D|-6------------X-|-X-----|-6--------------------------X-|-X----|
A|-7------------6-|-6-----|-7--------------------------6-|-6----|
E|-X------------7-|-7-----|-X--------------------------7-|-7----|
        Painted lines never take you where you haven't been.


E|-X--------------------|-X----------|-X--------------|-X-------|
B|-0--------------------|-0----------|-0--------------|-0-------|
G|-11-------------------|-11---------|-8--------------|-8-------|
D|-9--------------------|-9----------|-6--------------|-6-------|
A|-11-------------------|-11---------|-8--------------|-8-------|
E|-X--------------------|-X----------|-X--------------|-X-------|
         There's nothing new under the great big sunny sky.


E|-X-----------------X-|-X----------|-X--------------------X-|-X----|
B|-0-----------------0-|-0----------|-X--------------------0-|-0----|
G|-8-----------------8-|-8----------|-8--------------------8-|-8----|
D|-6-----------------X-|-X----------|-6--------------------X-|-X----|
A|-7-----------------6-|-6----------|-7--------------------6-|-6----|
E|-X-----------------7-|-7----------|-X--------------------7-|-7----|
         There never is,      but you didn't even bother to try.


 ________
.made on a emachine.(copied from *

HERRAMIENTAS ACORDESWEB:


LETRA DE LA CANCIÓN:

Ver la letra sola (sin acordes)

DESCARGAR PDF / IMPRIMIR CANCIÓN



ACORDES PARA GUITARRA

PIANO UKELELE


TOP 20: Las más tocadas de The Special Goodness


Acordes

Cerrar

10.07


181