Sweet Disposition (Acordes)

The Temper Trap

disco Álbum: Conditions (2009)
Subida por Osnaider


Imprimir FAQ
+A
-A

Texto

Desplazamiento

Transportador

Color de Fondo

Herramientas

TAMAÑO
TONALIDAD
+A
subir tono+ (F4)
-A
bajar tono- (F2)
Artist: The Temper Trap
Song: Sweet Disposition
Album: Conditions
Tabbed By: J Goddard ([email protected])

[Intro]

    D
E|-----------------------------------------|
B|-----------------------------------------|
G|-----------------------------------------|
D|----4-5-7----4-5-7----4-5-7----4-5-7-----|
A|--5--------5--------5--------5-----------|
E|-----------------------------------------|

   Bmin
E|-----------------------------------------|
B|-----------------------------------------|
G|-----------------------------------------|
D|----0-2-4----0-2-4----0-2-4----0-2-4-----|
A|--2---------2--------2--------2----------|
E|-----------------------------------------|


[Verse]

  D   Bm    D
sweet disposition
D  Bm     D 
never too soon
D   Bm       D
oh reckless abandon
     D
like no one's
 Bm      D      
watching you


[Pre-Chorus]

  D
a moment, a love

a dream, a laugh
  Bm
a kiss, a cry

our rights, our wrongs
  D
a moment, a love

a dream, a laugh
  Bm
a moment, a love

a dream, a laugh


[Chorus]

     D          Bm
just stay there
G       Em            D    Bm   G   Em
  cause i'll be comin over
                           D
and while our bloods still young
     Bm      G
it's so young
       Em                  D    Bm   G  
and we won't stop til it's over
 Em               D    Bm   G   Em
won't stop to surrender


[Verse]

D     Bm      D        
Songs of desperation
D  Bm             D 
I played them for you


[Pre-Chorus]

  D
a moment, a love

a dream, a laugh
  Bm
a kiss, a cry

our rights, our wrongs
  D
a moment, a love

a dream, a laugh
  Bm
a moment, a love

a dream, a laugh


[Chorus]

    D          Bm
just stay there
G       Em            D    Bm   G   Em
  cause i'll be comin over
                           D
and while our bloods still young
     Bm      G
it's so young
       Em                  D    Bm   G  
and we won't stop til it's over
 Em               D    Bm   G   Em
won't stop to surrender


REPEAT PRE-CHORUS AND FADE OUT

HERRAMIENTAS ACORDESWEB:


LETRA DE LA CANCIÓN:

Ver la letra sola (sin acordes)

OTRAS VERSIONES DE LA MISMA CANCIÓN:

Ver. 2 Ver. 3 Ver. 4 Ver. 5 Ver. 6

DESCARGAR PDF / IMPRIMIR CANCIÓN



ACORDES PARA

d
D
bm
Bm
g
G
em
Em


TOP 20: Las más tocadas de The Temper Trap