Compartir


Imprimir FAQ
+A
-A

Texto

Desplazamiento

Transportador

Color de Fondo

Archivos

-A
+A
Hey this is my first tab, but i'm sure it's 100%

plz rate and add me to msn: *.

would like to discuss music and guitar playing!

Standart tuning: (EADGBe)

Guitar 1 Intro + Verses:
    B                       E                               C#
e|--7-7-7-7-7-7-7-7-7-7-7-7-7-7-7-7-7-7-7-7-7-7-7-7-7-7-7-7-4-4-4-4-|
B|--7-7-7-7-7-7-7-7-7-7-7-7-9-9-9-9-7-7-7-7-7-7-7-7-7-7-7-7-6-6-6-6-|
G|--8-8-8-8-8-8-8-8-8-8-8-8-9-9-9-9-8-8-8-8-8-8-8-8-8-8-8-8-6-6-6-6-|
D|--9-9-9-9-9-9-9-9-9-9-9-9-9-9-9-9-9-9-9-9-9-9-9-9-9-9-9-9-6-6-6-6-|
A|--9-9-9-9-9-9-9-9-9-9-9-9-7-7-7-7-9-9-9-9-9-9-9-9-9-9-9-9-4-4-4-4-|
E|--7-7-7-7-7-7-7-7-7-7-7-7-x-x-x-x-7-7-7-7-7-7-7-7-7-7-7-7-x-x-x-x-|
      
   G#                      B       E
e|-4-4-4-4-4-4-4-4-4-4-4-4-2-2-2-2-0-0-0-0-0-0-0-0-0-0-0-0-|
B|-4-4-4-4-4-4-4-4-4-4-4-4-2-2-2-2-0-0-0-0-0-0-0-0-0-0-0-0-|
G|-5-5-5-5-5-5-5-5-5-5-5-5-3-3-3-3-1-1-1-1-1-1-1-1-1-1-1-1-|
D|-6-6-6-6-6-6-6-6-6-6-6-6-4-4-4-4-2-2-2-2-2-2-2-2-2-2-2-2-|
A|-6-6-6-6-6-6-6-6-6-6-6-6-4-4-4-4-2-2-2-2-2-2-2-2-2-2-2-2-|
E|-4-4-4-4-4-4-4-4-4-4-4-4-2-2-2-2-0-0-0-0-0-0-0-0-0-0-0-0-|

Guitar 1 Bridge:

    B                       C#                      E 
e|--2-2-2-2-2-2-2-2-2-2-2-2-4-4-4-4-4-4-4-4-4-4-4-4-7-7-7-7-7-7-7-7-7-7-7-7-|
B|--2-2-2-2-2-2-2-2-2-2-2-2-6-6-6-6-6-6-6-6-6-6-6-6-7-7-7-7-7-7-7-7-7-7-7-7-|
G|--3-3-3-3-3-3-3-3-3-3-3-3-6-6-6-6-6-6-6-6-6-6-6-6-8-8-8-8-8-8-8-8-8-8-8-8-|
D|--4-4-4-4-4-4-4-4-4-4-4-4-6-6-6-6-6-6-6-6-6-6-6-6-9-9-9-9-9-9-9-9-9-9-9-9-|
A|--4-4-4-4-4-4-4-4-4-4-4-4-4-4-4-4-4-4-4-4-4-4-4-4-9-9-9-9-9-9-9-9-9-9-9-9-|
E|--2-2-2-2-2-2-2-2-2-2-2-2-x-x-x-x-x-x-x-x-x-x-x-x-7-7-7-7-7-7-7-7-7-7-7-7-|

    B               C#
e|--2-2-2-2-2-2-2-2-4-4-4-4-4-4-4-4-|
B|--2-2-2-2-2-2-2-2-6-6-6-6-6-6-6-6-|
G|--3-3-3-3-3-3-3-3-6-6-6-6-6-6-6-6-|
D|--4-4-4-4-4-4-4-4-6-6-6-6-6-6-6-6-|
A|--4-4-4-4-4-4-4-4-4-4-4-4-4-4-4-4-|
E|--2-2-2-2-2-2-2-2-x-x-x-x-x-x-x-x-|

Guitar: 2

e|----------------6-7-6-7-7---------------------------6-7-6-7-|
B|--0-4-0-4-0-4-0-----------0-4-0-4-0-4-0------0-4-0----------|
G|------------------------------------------------------------|
D|------------------------------------------------------------|
A|------------------------------------------------------------|
E|------------------------------------------------------------|

e|-------7-7-------7-7-------7-7-6-7-6-7-------7-7-------7-7-------7-7-|
B|--9-7-------9-7-------9-7---------------9-7-------9-7-------9-7------|
G|---------------------------------------------------------------------|
D|---------------------------------------------------------------------|
A|---------------------------------------------------------------------|
E|---------------------------------------------------------------------|

e|--6-7-6-7-|
B|----------|
G|----------|
D|----------|
A|----------|
E|----------|

Enjoy + rate plz!!!

Steve

HERRAMIENTAS ACORDESWEB:


LETRA DE LA CANCIÓN:

Ver la letra sola (sin acordes)

DESCARGAR PDF / IMPRIMIR CANCIÓN



ACORDES PARA GUITARRA

PIANO UKELELE


TOP 20: Las más tocadas de The Thermals


Acordes

Cerrar

00.55

x

378