A Girl Called Johnny
The Waterboys
Acordes

Subida por Yeya
Álbum: The Waterboys ( 1983)


Más Versiones
Ver. 2

HERRAMIENTAS

Cambiar Cifrado
Americano Latino

Cambiar Tonalidad
-1 +1

Partir Pantalla Imprimir FAQ

+A
-A

LETRA CON ACORDES

¿Tu Guitarra esta Afinada? PRUEBA NUESTRO NUEVO AFINADOR

	  Intro:  Am Am G  G D D F G    x2 


hide this tabHide tab
Am G D F G
e|---------------12-------------------------12~|
B|12--------12-13--13-12-----12--------12-13---|
G|--14---14--------------14----14---14---------|
D|----14~------------------------14~-----------|
A|---------------------------------------------|
E|---------------------------------------------| tab



Am G
...I remember Johnny - hey!... Johnny come lately
D F G
...I remember her shoes like a... ballerina
Am G D
...A girl called Johnny who... changed her name when she
D F G
Discovered her choice was to change or to be changed

hide this tabHide tab Am G D F G
e|---------------12-------------------------12---------|
B|12--------12-13--13-12-----12--------12-13--13-12----|
G|--14---14--------------14----14---14--------------14-|
D|----14~------------------------14~-------------------|
A|-----------------------------------------------------|
E|-----------------------------------------------------| tab

Am G
... I remember a girl called Johnny... black as hell and white as a ghost
D F G
... Don't talk about life or death she said "I've had enough of both"
Am G D
... A girl called Johnny who - was - not - scared
D F G
... They'd have torn her to pieces but who would dare?

Sax solo
Am Am G G D D F G x2

Am G
... I remember a girl called Johnny... the train came to town, boy she got on it
D F G
Without looking back, without a word she said goodbye, well I never heard
Am
but the noise goes on, the noise, the jazz
G
And the truth is in somebody else's hands
D F G Am
And the house that a girl called johnny built is now-just-ash-es and sand
G D F G
Ashes and sand, ashes and sand

Am G D F G
Outro x6 Am
////////////////// ¿Te Animas? Sube una canción a este sitio. //////////////////

ACORDES PARA GUITARRA

PIANO UKELELE
Am
G
D
F


COMENTARIOS

Aún no hay comentarios,

¡escribe el primero!

Escribe una pregunta, duda o comentario sobre esta canción, te responderemos a la brevedad.

Las canciones más tocadas de The Waterboys

Toca una Canción al Azar de The Waterboys
Am
G
D
F

13.54


Nuestro servidor se demoró 0.05 segundos en generar esta página. Eso fue realmente muy rápido!