However Much I Booze
The Who
Acordes

Subida por Kamp
Álbum: The Who by Numbers ( 1975)


Más Versiones
Ver. 2 Ver. 3 Ver. 4 Ver. 5 Ver. 6

Cambiar Cifrado
Americano Latino

Cambiar Tonalidad
-1 +1

Partir Pantalla Imprimir FAQ

+A
-A
	   

{intro}

|A D/A |A D/A |A D/A |A D/A |

hide this tabHide tab|A D/A |A D/A |
|------------------|-----------------|
|--2h3-----------2-|--2h3-----------2|
|2----4p2---2------|2----4p2---------|
|--------2h4--2h4--|---------<7>-<7>-|
|------------------|-----------------|
|------------------|-----------------|

|A D/A |A D/A |
|------------------|-----------------|
|--2h3-----------2-|--2h3------------|
|2----4p2---2------|2----4p2-<7>-<7>-|
|--------2h4--2h4--|---------<7>-<7>-|
|------------------|-----------------|
|------------------|-----------------| tab

|A |E7sus4 E7 |A |Dv Dv Dv->E E
I see myself on TV, I'm a faker, a paper clown
|A |E7sus4 E7
It's clear to all my friends that I habitually lie,
|A |Dv Dv Dv->E E
I just bring them down
|D |E7sus4 E7
I claim proneness to exaggeration
|D |E7sus4 E7
But the truth lies in my frustration
|D |E7sus4 E7 |
The children of the night, they all pass me by
|D |E7sus4 | E7
Have to dress myself in brandy, in sleep I'll hide
|E7sus4 |E7
But however much I booze
|A D/A |A D/A |A D/A |A D/A
There ain't no way out There ain't no way out
|E7sus4 |E7 |A D/A |A D/A
I don't care what you say, boy There ain't no way out

{repeat intro}

I lose so many nights of sleep worrying

ACORDES PARA GUITARRA

PIANO UKELELE


COMENTARIOS

Aún no hay comentarios,

¡escribe el primero!

Escribe una pregunta, duda o comentario sobre esta canción, te responderemos a la brevedad.

Las más tocadas de The Who

Toca una Canción al Azar de The Who