Imagine A Man
The Who
Acordes

Subida por Isaac
Álbum: The Who by Numbers ( 1975)


Más Versiones
Ver. 2

Cambiar Cifrado
Americano Latino

Cambiar Tonalidad
-1 +1

Partir Pantalla Imprimir FAQ

+A
-A


Ver solo la LETRA
	  hide this tabHide tab|B       |B7sus2  |E/B     |Em/B     | 

|---2----|---0----|---3----|---3---3-|
|--3--3--|--3--3--|--3--3--|--3-3----|
|-2----2-|-5----5-|-4----4-|-3---3---|
|0------0|0------0|0------0|0-----0--|
|--------|--------|--------|---------|
|--------|--------|--------|---------|

|B |B7 |E/B |Em6/B |
(I-)
|---2----|---5----|-----3----|---0-----|
|--3--3--|--3--3--|----3--3--|--3------|
|-2----2-|-5----5-|-54----4-|-3---3---|
|-------0|0------0|0--------0|0-----0-0|
|--------|--------|----------|---------|
|0-------|--------|----------|---------| tab

|B |B7
Imagine a man
|E/B |Em/B
Not a child of any revolt
|B |B7sus2 |E6/B |Em6/B |
But a plain man tied up in life

|B |B7
Imagine the sand
|E/B |Em/B
Running out as he struts
|B |B7sus2 |E6/B |Em6/B |
Parading and fading, ignoring his wife

Imagine a road
So long looking backwards
You can't see where it really began

Imagine a load
So large and so smooth
That against it a man is an ant

{Chorus}
|A |B |C#m|D#m|E | | |
And you will see the end
|E |B |E/B B |B Bmaj7 |Bmaj7 E/B |B | |
You will see the end (I-)
hide this tabHide tab |2----|3---2---|--5-----|------3-----|2-----|-----|
|3----|3---3---|3-5-----|------3-----|3-----|-----|
|2----|4---2---|2-6-----|6-----4-----|2-----|-----|
|0----|0---0---|0-------|0-----0-----|0-----|-----|
|-----|--------|--------|------------|------|-----|
|-----|--------|--------|------------|------|-----| tab

Imagine events
That occur everyday
Like a shooting or raping or a simple act of deceit

Imagine a fence
Around you as high as prudential
Cast in shadows, you can't see your feet

Imagine a girl
With long flowing hair
And the body of chalky perfection and truth

Imagine a past
That you wish you had lived
Full of heroes and villains and fools

{repeat Chorus}
|A |B |C#m|D#m|E | | |
And you will see the end
E |B |E/B B |E/B B |E/B B |
You will see the end
|A B |C#m D#m|E | | |
And you will see the end
E |B |E/B B |B Bmaj7 |Bmaj7 E/B |B | |
You will see the end, oh yeah

Imagine a man
Not a child of any revolt
But a man of today feeling new

Imagine a soul
So old it is broken
And you know your invention is you

{repeat Chorus}

And you will see the end
You will see the end
You will see the end
You will see the end, oh yeah

ACORDES PARA GUITARRA

PIANO UKELELE


COMENTARIOS

Aún no hay comentarios,

¡escribe el primero!

Escribe una pregunta, duda o comentario sobre esta canción, te responderemos a la brevedad.

Las más tocadas de The Who

Toca una Canción al Azar de The Who