I´ve Been Away
The Who
Acordes

Subida por Steve10



Cambiar Cifrado
Americano Latino

Cambiar Tonalidad
-1 +1

Partir Pantalla Imprimir FAQ

+A
-A
	  intro; piano arr for gtr; 3/4} 

hide this tabHide tab G G(D) G G(D)
--|--10-10-10-|10-10---|--10-10-10-|10-10----|
--|--12-10-12-|10-12---|--12-10-12-|10-12----|
--|0-12-12-12-|12-12---|0-12-12-12-|12-12----|
-0|-----------|0------0|-----------|0-------0|
--|-----------|--------|-----------|---------|
--|-----------|--------|-----------|---------|
{bass} | | | |
--|-----------|--------|-----------|---------|
--|5----------|5-------|5----------|5---0-2-4|
-5|-----5----5|-------5|-----5----5|---------|
--|-----------|--------|-----------|---------|tab

|G |G(D) |G |G(D) |

|G |G(D) |G |G(D)
I've been away so long
|G |G(D) |G |G(D) |C |C(G) |C
Wonder where I went wrong, I spent my last year inside a cell
|C(G) |G |G(D) |G |
Never ever go away again
|G(D) |D |D(A)|D |D(A) |
I've been so sad and lonely
|C |C(G) |C |C(G)|G |G(D) |G |G(D) |
Never ever ever gonna go away again
{rept intro}

It's a waste of time doing time when you didn't commit the crime
It wasn't me it was my brother Bill
Emptied out the till, never gonna speak to Bill again
He's made me sad and lonely
Never ever gonna speak to brother Bill again

|C |C(G) |C |C(G) |G |G(D) |G |G(D)
It was no use, they put my brother on the jury
|C |C(G) |C |C(G) |D |D(A) |D |D(A)
He bribed the others 'cause he owns the local brewery

They let me out today
Brother Bill's gonna pay
No one's ever gonna speak to Bill again
Never ever ever speak to Bill again
He'll be too cold and bony
Never ever gonna go away again
Never ever gonna go away again
Never ever gonna go away again



ACORDES PARA GUITARRA

PIANO UKELELE


COMENTARIOS

Aún no hay comentarios,

¡escribe el primero!

Escribe una pregunta, duda o comentario sobre esta canción, te responderemos a la brevedad.

Las más tocadas de The Who

Toca una Canción al Azar de The Who