And It Rained All Night
Thom Yorke
Acordes

Subida por Estbango
Álbum: The Eraser ( 2006)



Cambiar Cifrado
Americano Latino

Cambiar Tonalidad
-1 +1

Partir Pantalla Imprimir FAQ

+A
-A


Ver solo la LETRA
Bass Tab

Album: The Eraser
Tabbed by: Jelmer
------------------------------

Tuning: E A D G


Intro:
(Starts at 0:22)

|---|
|---|
|---|
|-4-|

Main Riff:
(From 0:35)

|--------------|-------------|--------------|--------------|
|--------------|-------------|--------------|--------------|
|-4-4-4-3------|-4-3-4-3-----|--------------|--------------|
|----------4---|---------4---|-6-4-6-6--4---|-6-4-6-6--4---|


|-------------|-------------|--------------|--------------|
|-------------|-------------|--------------|--------------|
|-------------|-------------|--------------|--------------|
|-7-7--6--4---|-7-7--6--4---|-6-4-6-6--4---|-6-4-6-6--4---|

Riff Variation:
(At 1:33)

|--------------|--------------|--------------|--------------|
|--------------|--------------|--------------|--------------|
|--------------|--------------|--------------|--------------|
|-6-4-6-6--4---|-6-4-6-6--4---|-6-4-6-6--4---|-6-4-6-6--4---|


|-------------|-------------|--------------|--------------|
|-------------|-------------|--------------|--------------|
|-------------|-------------|--------------|--------------|
|-7-7--6--4---|-7-7--6--4---|-6-4-6-6--4---|-6-4-6-6--4---|

Bass Stops at 2:17 and starts again at 2:45 with the Main Riff

Outro:
(From 3:15)

|---|
|---|
|---|
|-4-|

ACORDES PARA GUITARRA

PIANO UKELELE


COMENTARIOS

Aún no hay comentarios,

¡escribe el primero!

Escribe una pregunta, duda o comentario sobre esta canción, te responderemos a la brevedad.

Las más tocadas de Thom Yorke

Toca una Canción al Azar de Thom Yorke