Monsters
Timeflies
Acordes

Subida por caleidoscopio
Álbum: After Hours ( 2014)



HERRAMIENTAS

Cambiar Cifrado
Americano Latino

Cambiar Tonalidad
-1 +1

Partir Pantalla Imprimir FAQ

+A
-A

LETRA CON ACORDES

¿Tu Guitarra esta Afinada? PRUEBA NUESTRO NUEVO AFINADOR

             Em7
I see your monsters
C9
I see your pain
G
Tell me your problems
D/F#
I'll chase them away
Em7
I'll be your lighthouse
C9
I'll make it okay
G
When I see your monsters
D/F#
I'll stand there so brave
And chase them all away

Em7 C9
E|------------------------------------------|
B|-----3--------3--------3--------3---------|
G|-------0--------0--------0--------0-------|
D|---2--------2--------2--------2-----------|
A|-------------------3--------3-------------|
E|-0--------0-------------------------------|

G D/F#
E|------------------------------------------|
B|-----3--------3--------3--------3---------|
G|-------0--------0--------2--------2-------|
D|---0--------0--------0--------0-----------|
A|------------------------------------------|
E|-3--------3--------2--------2-------------|

Em
A cup of coffee still steaming
C
Staring back at me, it's blacker than the night
G
I'm awake but still sleeping
D/F#
I keep telling myself I'll be alright (I won't)
Em
And I know it can't get worse than today
C
Sitting here and she's trying to rehearse what to say
G
See, she's in the bathroom hoping I'm not in earshot
D/F# Em
While she's getting used to the sound of a teardrop (Splash)
It hits the tile
C
And I know it's been a while since you seen me
G
Smile and laugh like I used to
I've been in denial since it happened
D/F#
Just take me to the past
Em
'Cause I just can't imagine losing you (too)
C
I can't explain this so I'll keep it all inside
Wear my pain, but it's masked by my pride
G
She came to hold me and she cried
D/F#
Told me this as she stared into my eyes, said

Em7
I see your monsters
C9
I see your pain
G
Tell me your problems
D/F#
I'll chase them away
Em7
I'll be your lighthouse
C9
I'll make it okay
G
When I see your monsters
D/F#
I'll stand there so brave
And chase them all away////////////////// ¿Te Animas? Sube una canción a este sitio. //////////////////

ACORDES PARA GUITARRA

PIANO UKELELE
Em7
C9
G
D/F#
Em
C


COMENTARIOS

Aún no hay comentarios,

¡escribe el primero!

Escribe una pregunta, duda o comentario sobre esta canción, te responderemos a la brevedad.

Las canciones más tocadas de Timeflies

Toca una Canción al Azar de Timeflies
Em7
C9
G
D/F#
Em
C

22.58


Nuestro servidor se demoró 0.1 segundos en generar esta página. Eso fue realmente muy rápido!