No Scrubs

TLC

Acordes

FanMail (1999)
Subida por DULCE


Más Versiones
Ver. 2 Ver. 3

Cambiar Cifrado
Americano Latino

Cambiar Tonalidad
-1 +1

Partir Pantalla Imprimir FAQ

+A
-A


Ver solo la LETRA
Album- Fan Mail


Standard Tuning- EADGBe (down a half step to play w/CD)


This song is basicly four chords used over and over again. They are:
Dm7(100211), Am(x02210), E7(022130) and back to Am(xo2210)


This the main riff:

Dm7 Am E7 Am
e-----------1-------------0------------------{-----------0-
B--------1-------------1----------------3----{--------1----
G-----2-------------2----------------1-------{-----2-------
D--0------------------------------2----------{-------------
A----------------0-------------2-------------{--0----------
E--------------------------------------------{-------------

e--3-1p0---0---
B--------3-----
repeat and this final riff - G--------------
D--------------
A--------------
E--------------



Questions,comments: *

NUEVO FORO DE MÚSICA

¿Tienes alguna duda, consulta, pregunta, consejo o algo para compartir sobre esta canción?

¡Puedes abrir un hilo en el FORO para que la comunidad te ayude! Hacer una pregunta

ACORDES PARA GUITARRA

PIANO UKELELE


Las más tocadas de TLC