Spanish Guitar
Toni Braxton
Acordes

Subida por Tatis
Álbum: The Heat ( 2000)


Más Versiones
Ver. 2 Ver. 3

HERRAMIENTAS

Cambiar Cifrado
Americano Latino

Cambiar Tonalidad
-1 +1

Partir Pantalla Imprimir FAQ

Ver solo la LETRA

+A
-A

LETRA CON ACORDES

¿Tu Guitarra esta Afinada? PRUEBA NUESTRO NUEVO AFINADOR

melódica ( Fá e sol # quando está subindo. Quando desce eles são naturais.)
Solo Inicial

Dm Am G
E|-0-1-3-1h3-0-1------------------------------------7-8-8/10-8-7-7/3-------------|
B|---------------3----1-0----0-1-3-1-0-3-1-0-1-----------------------------------|
G|-------------------0-----------------------------------------------------------|
D|------------------0------------------------------------------------------------|
A|---------------------------------------------------------------------3-2-0---0-|
E|-----------------3---------------------------------------------------------3---|

F E Am
A smoky room, a small cafe
Am/G
They come to hear you play
F7+
And drink and dance the night away

E|------------------------------------|
B|-0-1-3-1-0---0----------------------|
G|-----------2------------------------|
D|------------------------------------|
A|------------------------------------|
E|------------------------------------|

Bm7 E
I sit out in the crowd
A
And close my eyes
F#7
Dream to mind

E|------------------------------------|
B|-5-3-humer-on-0-3-------------------|
G|------------------------------------|
D|------------------------------------|
A|------------------------------------|
E|------------------------------------|

Bm7
But you don't know
E A A7
You don't even know that I'm there
E|------------------------------------|
B|-5-3-humer on-0-3-------------------|
G|------------------------------------|
D|------------------------------------|
A|------------------------------------|
E|------------------------------------|

Dm G
I wish that I was in your arms
Am G
Like that Spanish guitar
Dm G
And you would play me through the night
A A7
Till the dawn

E|------------------------------------|
B|-5-3-humer on-0-3-------------------|
G|------------------------------------|
D|------------------------------------|
A|------------------------------------|
E|------------------------------------|
Dm G
I wish you'd hold me in your arms
Am G
Like that Spanish guitar
F#m7/5-
all night long
F7+
All night long
Em
I'd be your song

E|------------------------------------|
B|--0-1-3-1-0-------------------------|
G|------------2-0---------------------|
D|----------------3-2-----------------|
A|------------------------------------|
E|------------------------------------|
F
I'd be your song

F
Fill my heart with
E Am
Every note you play
E|------------------------------------|
B|--- --------------------------------|
G|--3-1-humer-on-0-humer-on-3---------|
D|------------------------------------|
A|------------------------------------|
E|------------------------------------|
Am/G
I pray you'll look my way

F7+ Bm7
And hold me to your heart someday, yeah

E|-7-humer-on9-9-7--------------------|
B|-----------------10-9-7-5-4---------|
G|------------------------------------|
D|------------------------------------|
A|------------------------------------|
E|------------------------------------|

E
I long to be the one that
A F#7
You caress with a tenderness
Bm
And you don't know
E A A7
You don't even know that I exist

E|------------------------------------|
B|---3-/5-3-humer-on-0-humer-on-3-----|
G|------------------------------------|
D|------------------------------------|
A|------------------------------------|
E|------------------------------------|
Dm G
I wish that I was in your arms

SOLO
E|---------------------------------------------------------------------|
B|---------------------------------------------------------------------|
G|-7-9-10-/9-7-5-3----5-7-7-/9-9-4------7-9-10-9-7-5-3---5-------------|
D|------------------3-----------------7----------------3---5-7-5-7-5-4-|
A|---------------------------------------------------------------------|
E|---------------------------------------------------------------------|
Am G
Like that Spanish guitar
Dm G
And you would play me through the night
A A7
Till the dawn
Dm G
I wish you'd hold me in your arms
Am G
Like that Spanish guitar
F#m7/5-
all night long
F7+
All night long
Em
I'd be your song

I'd be your song
E|-------10-11-11-11-5-7-8-8-9-9-8-9humer-on8-7-8-10-11-10-8-7-5---4----------------------------------|
B|----8----------------------------------------------------------5---1-3humer-on-1humer-on-0-3-0-3-1-0|
G|5/9-------------------------------------------------------------------------------------------------|
D|----------------------------------------------------------------------------------------------------|
A|----------------------------------------------------------------------------------------------------|
E|----------------------------------------------------------------------------------------------------|

E|----------12-12-12-10-10-10-8-8-8-6-6-6---8-8-10-|
B|--6-8-10--------------------------------8--------|
G|-------------------------------------------------|
D|-------------------------------------------------|
A|-------------------------------------------------|
E|-------------------------------------------------|

Cm F Bb
Te sientes inteligente
G
Cierras tus ojos
Cm F
Y suenes que soy tuyo
Bb G
Pero yo no se
Ni si quiera que estas aqui
Cm F Bb Bm7
Me gustaria tenerte en mis brazos amor

E
I sit out in the crowd
A
And close my eyes
F#7
Dream to mind
Bm
But you don't know
E A A7
You don't even know that I exist

Dm G
I wish that I was in your arms
Am G
Like that Spanish guitar
Dm G
And you would play me through the night
A A7
Till the dawn
Dm G
I wish you'd hold me in your arms
Am G
Like that Spanish guitar
F#m7/5-
all night long
F7+
All night long
Em
I'd be your song

Dm G
I'll be your song, your song, your song
Am
I'll be your song, yeah
Dm G
I'll be your song, your song, your song
Am
Play me all night long
Dm G
I'll be your song, your song, your song
Am
I'll be your song, yeah
Dm G
I'll be your song, your song, your song
Am
I wanna be your song
Dm G
I'll be your song, your song, your song
Am
I'll be your song, yeah
Dm G
I'll be your song, your song, your song
Am
Play me all night long////////////////// ¿Te Animas? Sube una canción a este sitio. //////////////////

ACORDES PARA GUITARRA

PIANO UKELELE
Dm
Am
G
F
E
Am/G
Fmaj7
Bm7
A
F#7
A7
F#m7b5
Em
Bm


COMENTARIOS

Aún no hay comentarios,

¡escribe el primero!

Escribe una pregunta, duda o comentario sobre esta canción, te responderemos a la brevedad.

Las canciones más tocadas de Toni Braxton

Toca una Canción al Azar de Toni Braxton
Dm
Am
G
F
E
Am/G
Fmaj7
Bm7
A
F#7
A7
F#m7b5
Em
Bm

11.11


Nuestro servidor se demoró 0.14 segundos en generar esta página. Eso fue realmente muy rápido!