Billionaire
Travie McCoy
Acordes

Subida por Noe2019
Álbum: Lazarus ( 2010)


Más Versiones
Ver. 2 Ver. 3 Ver. 4 Ver. 5 Ver. 6 Ver. 7 Ver. 8

HERRAMIENTAS

Cambiar Cifrado
Americano Latino

Cambiar Tonalidad
-1 +1

Partir Pantalla Imprimir FAQ

+A
-A

LETRA CON ACORDES

¿Tu Guitarra esta Afinada? PRUEBA NUESTRO NUEVO AFINADOR

Primeira parte:
A C#7 F#m E
E|------------------|------------------|----------------------|------------------|
B|----5-x-5--5-x-5--|----6-x-6--6-x-6--|----10-x-10--10-x-10--|----9-x-9--9-x-9--|
G|----6-x-6--6-x-6--|----4-x-4--4-x-4--|----11-x-11--11-x-11--|----9-x-9--9-x-9--|
D|----7-x-7--7-x-7--|----6-x-6--6-x-6--|----11-x-11--11-x-11--|----9-x-9--9-x-9--|
A|------------------|--4---------------|--9-------------------|--7---------------|
E|--5---------------|------------------|----------------------|------------------|

(Bruno Mars)
A C#7
I wanna be a billionaire so fucking bad.
F#m E
Buy all of the things I never had.
A C#7
I wanna be on the cover of Forbes magazine.
F#m E
Smiling next to Oprah and the Queen.

Refrão:
D E F#m
E|------------------------------------------
B|----7-x-7----9-x-9----10-x-10--10-x-10----
G|----7-x-7----9-x-9----11-x-11--11-x-11----
D|----7-x-7----9-x-9----11-x-11--11-x-11----
A|--5--------7--------9---------------------
E|------------------------------------------

D E F#m
E|------------------------------------------
B|----7-x-7----9-x-9----10-x-10--10-x-10----
G|----7-x-7----9-x-9----11-x-11--11-x-11----
D|----7-x-7----9-x-9----11-x-11--11-x-11----
A|--5--------7--------9---------------------
E|------------------------------------------

D E A A/G# F#m E
E|------------------------------------------
B|----7-x-7----9-x-9-----14----14---10---9--
G|----7-x-7----9-x-9-----14----14---11---9--
D|----7-x-7----9-x-9-----14----14---11---9--
A|--5--------7--------12----11----9----7----
E|------------------------------------------

D C#7 F#m
E|------------------------------------2-----
B|----7-x-7--7-x-7----6-x-6--6-x-6----2-----
G|----7-x-7--7-x-7----4-x-4--4-x-4----2-----
D|----7-x-7--7-x-7----6-x-6--6-x-6----4-----
A|--5---------------4-----------------4-----
E|------------------------------------2-----

D E F#m
Oh everytime I close my eyes.
D E F#m
I see my name in shining lights.
D E A A/G# F#m
Yeah a different city every night oh, I
E D C#7
I swear the world better prepare
F#m
for when i'm a billionaire.

Segunda parte:

(Travie McCoy)
A
Yeah I would have a show like Oprah
C#7
I would be the host of everyday christmas give Travie a wish list.
F#m
I'd probably pull an Angelina and Brad Pitt
E
and adopt a bunch of babies that ain't never had shit.
A
Give away a few mercedes like here lady have this.
C#7
And last but not least grant somebody there last wish.
F#m
It's been a couple months that i've been single so
E
you can call me Travie Claus minus the ho ho.
A
Ahaa get it.

I'd probably visit where Katrina hit
C#7
and damn sure do alot more than FEMA did.
F#m
Yeah can't forget about me stupid.
E
Everywhere I go imma have my own theme music.

Refrão:
D E F#m
Oh everytime I close my eyes. ( watcha see, watcha see, bro?)
D E F#m
I see my name in shining lights. ( Hm mh, Hm mh, and what else?)
D E A A/G# F#m
Yeah a different city every night oh, I ( hm, yeah yeah yeah)
E D C#7
I swear the world better prepare (for what?)
F#m
for when i'm a billionaire.
A Bm
Oh oh oh oh when i'm a billionaire.
A Bm
Oh oh oh oh.

(Travie McCoy)
A
Yeah I would have a show like Oprah
C#7
I would be the host of everyday christmas give Travie a wish list.
F#m
I'd probably pull an Angelina and Brad Pitt
E
and adopt a bunch of babies that ain't never had shit.
A
Give away a few mercedes like here lady have this.
C#7
And last but not least grant somebody there last wish.
F#m
It's been a couple months that i've been single so
E
you can call me Travie Claus minus the ho ho.
A
Ahaa get it.

I'd probably visit where Katrina hit
C#7
and damn sure do alot more than FEMA did.
F#m
Yeah can't forget about me stupid.
E
Everywhere I go imma have my own theme music.

(Travie McCoy)
A
I'll be playing basketball with the president.

Dunking on his delegates.
C#7
Then I compliment on his political etiquette.
F#m
Toss a couple milli in the air just for the heck of it
E
But keep the fives, twentys, tens, and bens completely separate
A
And yeah I'll be in a whole new tax bracket
C#7
We in recession but let me take a crack at it
F#m
I'll probably take whatevers left and just split it up
E
So everybody that I love can have a couple bucks
A C#7
And not a single tummy around me would know what hungry was

Eating good sleeping soundly
F#m
I know we all have a similar dream
E
Go in your pocket pull out your wallet

And put it in the air and sing

(repete primeira parte e refrão)
A C#7
I wanna be a billionaire so fucking bad.////////////////// ¿Te Animas? Sube una canción a este sitio. //////////////////

ACORDES PARA GUITARRA

PIANO UKELELE
A
C#7
F#m
E
D
A/G#


COMENTARIOS

Aún no hay comentarios,

¡escribe el primero!

Escribe una pregunta, duda o comentario sobre esta canción, te responderemos a la brevedad.

Las canciones más tocadas de Travie McCoy

Toca una Canción al Azar de Travie McCoy
A
C#7
F#m
E
D
A/G#

15.53


Nuestro servidor se demoró 0.1 segundos en generar esta página. Eso fue realmente muy rápido!