c ▷ MANICOMIO: (Ñu) Acordes para Guitarra, Piano & Ukelele

Manicomio (Acordes)

Ñu

Subida por ROBIN

Compartir


Imprimir FAQ
+A
-A

Texto

Desplazamiento

Transportador

Color de Fondo

Archivos

-A
+A
Haber SI LA gente se pone a sacar cosas de estos  maravillosos 
musicos:


Intro:
|--------------------------------------------------------|
|--------------------------------------------------------|
|---------------5-7-9-7-9-7--5----------------5-7-9-7-9--|  
|--2---5--7--5--3-5-7-5-7-5--3-7-2---5--7--5--3-5-7-5-7--| x2 
|--0---3--5--3-----------------5-0---3--5--3-------------|
|--------------------------------------------------------|

|---------|
|---------|
|---------|
|---------|
|--5-5-5--|
|--3-3-3--|

LA5            SOL5             FA5
  Hay quien pregunta que quien soy,
             SOL5  
  a que me dedico,
FA5         SOL5          LA5
  y yo me rio y cierro el pico.

LA5           SOL5          FA5
  He llegado haciendo auto-stop,
          SOL5       
  casi hasta palacio,
FA5          SOL5     LA5    
  con veinte pavos y borracho.

SI5 LA5 SOL5 LA5 SOL5 FA5 SOL5 SOL5
  Aire limpio en el jardin,
SI5 LA5 SOL5 LA5 SOL5 FA5 SOL5 SOL5
  manicomio de ilusion.
SI5 LA5 SOL5 LA5 SOL5 FA5 (3 veces, escuchese LA cancion)
  Manicomio, manicomio, manicomio!!!!

Puente

|---------------------------------|
|---------------------------------|
|---------------------------------|
|-----------------------------7---| 2 veces
|---7-7-7--7-7-7-5----7-7-7---5---|
|---5-5-5--5-5-5-3----5-5-5-------|

 
  Personajes de alta sociedad,
  marquesas y condes,
  princesas hadas y ladrones.

  La orquesta a punto de empezar,
  ese twist romantico,
  y Cenicienta va a bailar.


  Aire limpio en el jardin,
  manicomio de ilusion.
  Manicomio, manicomio, manicomio!!!!!


  Aire limpio en el jardin,
  manicomio de ilusion.
  Manicomio, manicomio, manicomio!!!!!

Video Clip de Manicomio


ACORDES PARA GUITARRA

PIANO UKELELE
B
A
A5
G5
F5
B5


TOP 20: Las más tocadas de Ñu


Toca una Canción al Azar de Ñu

Acordes

Cerrar
B
A
A5
G5
F5
B5

17.29

x

117