Everything Turned Red

Useless ID

Acordes

Subida por RandallDes



Cambiar Cifrado
Americano Latino

Cambiar Tonalidad
-1 +1

Partir Pantalla Imprimir FAQ

+A
-A
Useless ID

Everything Turned Red
Redemption
2004 Kung Fu Records
Submitted by: [email protected]

Key: G

Tuning: Standard EADGBe

Chords used:
G -   320033  
D -   xx0232
D7 -  xx0212
Em -  022000
C -   x32010
Cm -  x35543
Bm -  x24432 or B - x24442


Intro: D7--


Verse 1:
G          C
I am still waiting 
    B         Em    C
for one happy ending
  G             Em
I take back the secret
  Bm          C
I want you to know
G                 C
Bright lights and dark 
        B
screens won't save 
    Em
the last scene
      G           Em
Maybe next time I see 
          Bm       C     G
you won't be in my dreams


Chorus 1:
D               Em
  I wish that I had a 
      C          G
chance to get to know you
D            Em
  Everything turned red 
C(Hold)                Cm--
  the first time I saw you


Verse 2:
G         C
Full of affection
   B          Em     C
to get your attention
    G            Em
You read me your lines
       Bm            C
then I gave you this song
G             C
You messed up this one
B        Em
I better move on
C       G
When it seems like we're
Em         Bm           C   G
heading in our separate ways


Chorus 2:
D               Em
  I wish that I had a 
      C          G
chance to get to know you
D            Em
  Everything turned red 
C                  G
  the first time I saw you
D               Em
  I wish that I had a 
      C          G
chance to get to know you
D            Em
  Everything turned red 
C(hold)                Cm--
  the first time I saw you


Guitar Solo: 
G-C-Bm-Em-G-Em-Bm-C- x2


Guitar 2: Solo
e|-----------------------------------------------------------------------|
B|-0/3--5-----------4--5--7--5-------------------------------------------|
G|---------4--------------------4------4--5--4---------------------------|
D|------------7--5-----------------5-7----------7--5--4--5--7--0h2p0h2p0-|
A|-----------------------------------------------------------------------|
E|-----------------------------------------------------------------------|

e|----------------------------------------------------------------------|
B|-0/3--5-----------4--5--7--5---------3--5--3------------------8-8-8-8-|
G|---------4--------------------4--4-5-4--5--4--5-4-4--2--4--5--7-7-7-7-|
D|------------7--5-----------------5-7----------7-5-5--4--5--7--5-5-5-5-|
A|----------------------------------------------------------------------|
E|----------------------------------------------------------------------|


Chorus 3:
D               Em
  I wish that I had a 
      C          G
chance to get to know you
D            Em
  Everything turned red 
C                  G
  the first time I saw you
D               Em
  I wish that I had a 
      C          G
chance to get to know you
D            Em
  Everything turned red 
C                  G
  the first time I saw you
D            Em
  Everything turned red 
C                  G
  the first time I saw you
D            Em
  Everything turned red 
C                  G
  the first time I saw you
D            Em
  Everything turned
           C
everything turned
everything turned red
D            Em
  Everything turned red 
C                  G
  the first time I saw you
D            Em        C(Hold) G(hold)
  Everything turned red

NUEVO FORO DE MÚSICA

¿Tienes alguna duda, consulta, pregunta, consejo o algo para compartir sobre esta canción?

¡Puedes abrir un hilo en el FORO para que la comunidad te ayude! Hacer una pregunta

ACORDES PARA GUITARRA

PIANO UKELELE
G
D
D7
Em
C
Cm
Bm
B


Las más tocadas de Useless ID

G
D
D7
Em
C
Cm
Bm
B