Deus e eu no sertao (Acordes)

Victor y Leo

Subida por Alito

Compartir


Imprimir FAQ
+A
-A

Texto

Desplazamiento

Transportador

Color de Fondo

Archivos

-A
+A
Tono: E(acordes na forma do tom C)
Cejilla en la 4ª casa

Introdução:

Solo


E|-0-3---0--------------------------------------------|
B|-----1-----1---1------------------------------------|
G|---------2---0-----0----0---------------------------|
D|-----------------2---0------------------------------|
A|--------------------------2-------------------------|
E|----------------------------------------------------|


Base: C9 Am A5(9) (2x)


Primeira Parte:

C               Am  A5(9)
  Nunca vi ninguém
C              Am  A5(9)
  Viver tão feliz
 F   G         C  G
Como eu no sertão
C               Am  A5(9)
  Perto de uma mata
C               Am  A5(9)
  E de um ribeirão
 F     G         C
Deus e eu no sertão


Segunda Parte:
Dm            G
  Casa simplesinha
C              Am
  Rede pra dormir
Dm                     G
  De noite um show no céu
F
  Deito pra assistir

C9 Am A5(9) (2x)

 F     G         C  G
Deus e eu no sertão


Passagem:


E|----------------------------------------------------|
B|------1-1-------------------------------------------|
G|---0--2-2-------------------------------------------|
D|-0--------------------------------------------------|
A|----------------------------------------------------|
E|----------------------------------------------------|



Repetições e Final:
C9               Am  A5(9)
  Das horas não sei
C9               Am  A5(9)
  Mas vejo o clarão
 F     G              C  G
Lá vou eu cuidar do chão
C9             Am  A5(9)
  Trabalho cantando
C9                    Am  A5(9)
  A terra é a inspiração
 F     G         C
Deus e eu no sertão
Dm            G
  Não há solidão
C                  Am
  Tem festa lá na vila
Dm                 G
  Depois da missa vou
F  G           C
  Ver minha menina
Dm              G
  De volta pra casa
C                      Am
  Queima a lenha no fogão
Dm                   G
  E junto ao som da mata

F
  Vou eu e um violão

C9 Am A5(9) (2x)

 F     G         C  Am
Deus e eu no sertão
 F     G
Deus e eu no sertão

C9 Am A5(9) (4x)


Solo Final:


E|-0-3---0-----------------------0--------------------|
B|-----1-----1---1---------------1--------------------|
G|---------2---0-----0----0------0--------------------|
D|-----------------2---0---------0h2------------------|
A|--------------------------2----3--------------------|
E|----------------------------------------------------|


Video Clip de Deus e eu no sertao


ACORDES PARA GUITARRA

PIANO UKELELE
C
Am
A5
F
G
Dm
C9


TOP 20: Las más tocadas de Victor y Leo


Acordes

Cerrar
C
Am
A5
F
G
Dm
C9

14.09

x

65