Abril (Acordes)

Villa Cariño

Subida por davidmenruz

Compartir


Cambiar Cifrado
Americano Latino

Cambiar Tonalidad
-1 +1
Imprimir FAQ
+A
-A

Texto

Desplazamiento

Transportador

Color de Fondo

Archivos

TONALIDAD, TAMAÑO, CIFRADO, SCROL.

Nos renovamos: Ahora puedes cambiar TODO haciendo clic en ICONO de la Guitarra () que aparece en la parte inferior de esta página.


LETRA CON ACORDES

INTRO: Am
Am
De todo lo que ya vivi
C
lo unico que odio soy yo
F
tratando de sobrevivir
G
tratando de olvidar tu amor
Am
teniendo que olvidarte a ti
C
a cambio de una explicacion
F
y es que el futuro para ti
G
parece que no era yo
F
y nunca quise ser romantico
G
al menos nunca para ti
Am
maldita la sinceridad
C
maldito ese mes de abril
F
ahi fue que me dejaste solo
G
cuando mas te necesite
Am
no digas que tambien te dueleee
F
si tu no sabes lo que es volverse loco
G
extrañando tu cuerpo que ya no es mio
Em
imaginando como te entregas a otros
Am
haciendo todo lo que tu hacias conmigo
F
y no me digas que no tengo que olvidarte
G
y no me digas que podemos ser amigos
Em                      Am
que yo prefiero morirme de friooo...
F
voy tomar!!
G
toma la noche para olvidar
Em
voy a llorar!!
Am
la ultima lagrima de soledad
F
voy tomar!!
G
toma la noche para olvidar
Em
voy a llorar!!
Am
llora guitarra

solo: F G Em Am (x2)

e-----------------------------------------------7-----8r10r8-
B---------------5-------------------------8-------8----------
G---------5-7b9---7r5-5-----5-------7-------7----------------
D-----5-7-----------------7---7---5---5-------5-----7--------
A---7-------------------7-------7-------7--------------------
E------------------------------------------------------------


e------------------------------------------------------------
B-10-8-10-8r10-----------5-----------------13----------------
G--------------7b9-7-5-7-----12-12r9r12-12----12r10----------
D--------------------------8---------------------------------
A------------------------------------------------------------
E------------------------------------------------------------

E-------------------------------------12---------------------
B-------------15------------------12--12---------------------
G-14r10r14-14----14r12-12--12--14---------14b16-14-16-14-----
D--------------------------------------------------------14
A------------------------------------------------------------
E------------------------------------------------------------

           (h)  (h)
e-----------------------------------------------------------
B---15r17---15--14-------------------------------------------
G------------------------------------------------------------
D------------------------------------------------------------
A------------------------------------------------------------
E------------------------------------------------------------

F
si tu no sabes lo que es volverse loco
G
extrañando tu cuerpo que ya no es mio
Em
imaginando como te entregas a otros
Am
haciendo todo lo que tu hacias conmigo
F
y no me digas que no tengo que olvidarte, no
G
y no me digas que podemos ser amigos
Em                      Am
que yo prefiero morirme de friooo...

F
voy tomar!!
G
toma la noche para olvidar
Em
voy a llorar!!
Am
la ultima lagrima de soledad
F
voy tomar!!
G
toma la noche para olvidar
Em
voy a llorar!!
Am
llora, llora chinita

OUTRO : F G Em Am (RIFF 1)

y esta el Villa Cariño..

voy a tomar (voy a tomar... toda la noche para olvidar)
voy a llorar
voy a tomar (si tu no sabes lo que es volverse loco)
voy a llorar
voy a tomar
voy a llorar
voy a tomar
voy a llorar...

RIFF 1

E--12-----12--15-12-15----------12----12-------------------12
B------13--------------15-12-15----15----12--------12-13-15--15
G-------------------------------------------12--14-----------
D------------------------------------------------------------
A------------------------------------------------------------
E------------------------------------------------------------

para ti...Nicole G.


Video Clip de Abril


ACORDES PARA GUITARRA

PIANO UKELELE
Am
C
F
G
Em


TOP 20: Las más tocadas de Villa Cariño


Acordes

Cerrar
Am
C
F
G
Em

11.26

x

72