Niña (Acordes)

Villa Cariño

Subida por erueda

Compartir


Cambiar Cifrado
Americano Latino

Cambiar Tonalidad
-1 +1
Imprimir FAQ
+A
-A

Texto

Desplazamiento

Transportador

Color de Fondo

Archivos

TONALIDAD, TAMAÑO, CIFRADO, SCROL.

Nos renovamos: Ahora puedes cambiar TODO haciendo clic en ICONO de la Guitarra () que aparece en la parte inferior de esta página.


LETRA CON ACORDES

Intro
e|-10-9-9-7-7-------------------------------------------|
B|------------10-10-------------------------------------|
G|--------------------7-10-9-9-7-7-6--------------------|
D|-----------------------------------9-6-7--------------|
A|------------------------------------------------------|
E|------------------------------------------------------|


           LA              DO#m
Ya está más que claro que, Soy bastante adulto ya
     RE                     REm      MI
Para andar nervioso así, Nervioso contigo niña
           LA            DO#m
Tenemos Distinta edad, Quizás pueda afectar
     RE                     REm      MI
Para andar nervioso así, Nervioso contigo niña


        DO#m                 RE
Siempre me pasa igual, Esto de andar así
        SIm                  RE        MI
Y a todos nos pasa igual,Son las cosas de la vida
        FA#m                 FA7
Y no lo quiero aceptar, Porque puedes sospechar
        SIm                  REm         MI
Y al final se nota igual, Y solo espero algo de ti


    LA          DO#m
Dame una señal, Dime como actuar
     RE                REm         MI
Quiero confesarte hoy, Todo lo que siento niña
     LA            DO#m
Un Rayo de Sol, Para alumbrar
     RE           REm         MI
La Sinceridad, Que tanto me cuesta Niña


        DO#m                 RE
Siempre me pasa igual, Esto de andar así
        SIm                  RE        MI
Y a todos nos pasa igual,Son las cosas de la vida
        FA#m                 FA7
Y no lo quiero aceptar, Porque puedes sospechar
        SIm                  REm         MI
Y al final se nota igual, Y solo espero algo de ti



 LA             DO#m
Dame una señal, Dime como actuar
     RE                REm         MI
Quiero confesarte hoy, Todo lo que siento niña
     LA            DO#m
Un Rayo de Sol, Para alumbrar
     RE           REm         MI
La Sinceridad, Que tanto me cuesta Niña


    LA                DO#m
Dame una señal, Dime como actuar
     RE        REm               MI
yo Quiero confesarte hoy, Todo lo que siento niña
     LA            DO#m
Un Rayo de Sol, Para alumbrar
     RE           REm         MI
La Sinceridad, Que tanto me cuesta Niña


fin
e|-10-9-9-7-7-------------------------------------------|
B|------------10-10-------------------------------------|
G|--------------------7-10-9-9-7-7-6--------------------|
D|-----------------------------------9-6-7--------------|
A|------------------------------------------------------|
E|------------------------------------------------------|


Video Clip de Niña


ACORDES PARA GUITARRA

PIANO UKELELE
A
C#m
D
Dm
E
Bm
F#m
F7


TOP 20: Las más tocadas de Villa Cariño


Acordes

Cerrar
A
C#m
D
Dm
E
Bm
F#m
F7

19.29

x

75