Blues Hand Me Down
Vintage Trouble
Acordes

Subida por Machin
Álbum: The Bomb Shelter Sessions ( 2010)



HERRAMIENTAS

Cambiar Cifrado
Americano Latino

Cambiar Tonalidad
-1 +1

Partir Pantalla Imprimir FAQ

+A
-A

LETRA CON ACORDES

¿Tu Guitarra esta Afinada? PRUEBA NUESTRO NUEVO AFINADOR

Intro:
E|---------------------------------------------------------------------------|
B|---------------------------------------------------------------------------|
G|----------------/5-3-------------------------------------------------------| X2
D|------------1--------53-1-3-1---------------------------------------------|
A|--3-1---1-3---3-----------------3-1~---1---1---1-2-3-3-3~------------------|
E|------3------------------------------3---3---3-----------------------------|

Verse:
E|-------3-5-3----------------3-5-3------------------------------------------|
B|-------4-6-4----------------4-6-4------------------------------------------|
G|-----------------5-5~-----------------5-5~---------------------------------|
D|--5-5------------5-5~---5-5-----------5-5~--3-3-5-3-3-3-3-3--6-6-6-6-------|
A|--3-3--------3-3--------3-3-------3-3-------1-1-1-1-1-1-1-1--6-6-6-6-------|
E|-------------------------------------------------------------4-4-4-4-------|
X2
E|---------------3-5-3-------------------------------------------------------|
B|---------------4-6-4-------------------------------------------------------|
G|-------------------------5-5~----------------------------------------------|
D|--5-5-5-5--5-5-----------5-5~----------------------------------------------|
A|--5-5-5-5--3-3-------3-3---------------------------------------------------|
E|--3-3-3-3------------------------------------------------------------------|

PRE-CHORUS:
E|---------------------------------------------------------------------------|
B|------------10b-10-8-10b-8------------------------------------------------|
G|-------8-10-10b-10-8-10b-8----------------/5-3----------------------------| X2
D|---/10---------------------------------1--------5/3-1-3--------------------|
A|-----------------------------3-1---1-3---3---------------------------------|
E|---------------------------------3-----------------------------------------|

VERSE:
E|-------3-5-3----------------3-5-3------------------------------------------|
B|-------4-6-4----------------4-6-4------------------------------------------|
G|-----------------5-5~-----------------5-5~---------------------------------|
D|--5-5------------5-5~---5-5-----------5-5~--3-3-5-3-3-3-3-3--6-6-6-6-------|
A|--3-3--------3-3--------3-3-------3-3-------1-1-1-1-1-1-1-1--6-6-6-6-------|
E|-------------------------------------------------------------4-4-4-4-------|

E|---------------3-5-3-------------------------------------------------------|
B|---------------4-6-4-------------------------------------------------------|
G|-------------------------5-5~----------------------------------------------|
D|--5-5-5-5--5-5-----------5-5~----------------------------------------------|
A|--5-5-5-5--3-3-------3-3---------------------------------------------------|
E|--3-3-3-3------------------------------------------------------------------|

PRE-CHORUS:

E|---------------------------------------------------------------------------|
B|------------10b-10-8-10b-8------------------------------------------------|
G|-------8-10-10b-10-8-10b-8----------------/5-3----------------------------|
D|---/10---------------------------------1--------5/3-1-3--------------------|
A|-----------------------------3-1---1-3---3---------------------------------|
E|---------------------------------3-----------------------------------------|

E|---------------------------------------------------------------------------|
B|------------10b-10-8-10b-8------------------------------------------------|
G|-------8-10-10b-10-8-10b-8--5-5-5-5-5-5-5-5-------------------------------|
D|---/10-----------------------5-5-5-5-5-5-5-5-------------------------------|
A|-----------------------------3-3-3-3-3-3-3-3-------------------------------|
E|---------------------------------------------------------------------------|

CHORUS:

E|-----------------------8---8-8---------------------------------------------|
B|-----------------------8---8-8---------------------------------------------|
G|--6~-6-6-6-6-6-6--5~-------------------------------------------------------| X3
D|--6~-6-6-6-6-6-6--5~-5-----------------------------------------------------|
A|--4~-4-4-4-4-4-4--3~-3---8-------------------------------------------------|
E|---------------------------------------------------------------------------|

E|---6-6---6-6---6-6---6-6---6-6-6-------------------------------------------|
B|---6-6---6-6---6-6---6-6---6-6-6-------------------------------------------|
G|-----------------------------------5~--------------------------------------|
D|-----------------------------------5~--------------------------------------|
A|-----------------------------------3~--------------------------------------|
E|---------------------------------------------------------------------------|

SOLO:

E|-----------------------------------------------------------------------------------|
B|-----------------------------------------------------------------------------------|
G|---5-5-5-5-7-7-7-7-8-8-8-8-10-10-10-10-12-12-12-12-15-15-15-15--------------------|
D|-----------------------------------------------------------------------------------|
A|---3-3-3-3-5-5-5-5-6-6-6-6-8--8--8--8--10-10-10-10-13-13-13-13--------------------|
E|-----------------------------------------------------------------------------------|

E|---------------------------------8-8-8-----8-8-----8-8-----8-8-8-8---------|
B|---------------------------------8-8-8-----8-8-----8-8-----8-8-8-8---------|
G|--17-17-17-17-17-17-17-17----10b-------10b-----10b-----10b-----------------|
D|---------------------------------------------------------------------------|
A|--15-15-15-15-15-15-15-15--------------------------------------------------|
E|---------------------------------------------------------------------------|

E|-----------------------------------------------8-8-8-----8-8-----8-8-------|
B|---11b-11b-11-8---------------10-8-------------8-8-8-----8-8-----8-8-------|
G|----------------10--pb10p8----10-8---------10b-------10b-----10b-----------|
D|---------------------------10------10~-------------------------------------|
A|---------------------------------------------------------------------------|
E|---------------------------------------------------------------------------|
[ Tab from: http://www.guitaretab.com/v/vintage-trouble/283345.html ]
E|-------8-8-8-8--11b-11-8---------------------------------------------------|
B|-------8-8-8-8-----------11-8----------------------------------------------|
G|---10b------------------------pb10p8--10-8---------------------------------|
D|-------------------------------------------10-10--------------------------|
A|---------------------------------------------------------------------------|
E|---------------------------------------------------------------------------|

VERSE:

E|---------------------------------------------------------------------------|
B|---------------------------------------------------------------------------|
G|----------------DRUMS------------------------------------------------------|
D|--------------------------------------------3-3-5-3-3-3-3-3--6-6-6-6-------|
A|--------------------------------------------1-1-1-1-1-1-1-1--6-6-6-6-------|
E|-------------------------------------------------------------4-4-4-4-------|

E|---------------3-5-3-------------------------------------------------------|
B|---------------4-6-4-------------------------------------------------------|
G|-------------------------5-5~----------------------------------------------|
D|--5-5-5-5--5-5-----------5-5~----------------------------------------------|
A|--5-5-5-5--3-3-------3-3---------------------------------------------------|
E|--3-3-3-3------------------------------------------------------------------|

PRE-CHORUS:

E|---------------------------------------------------------------------------|
B|------------10b-10-8-10b-8------------------------------------------------|
G|-------8-10-10b-10-8-10b-8----------------/5-3----------------------------|
D|---/10---------------------------------1--------5/3-1-3--------------------|
A|-----------------------------3-1---1-3---3---------------------------------|
E|---------------------------------3-----------------------------------------|

E|---------------------------------------------------------------------------|
B|------------10b-10-8-10b-8------------------------------------------------|
G|-------8-10-10b-10-8-10b-8--5-5-5-5-5-5-5-5-------------------------------|
D|---/10-----------------------5-5-5-5-5-5-5-5-------------------------------|
A|-----------------------------3-3-3-3-3-3-3-3-------------------------------|
E|---------------------------------------------------------------------------|

CHORUS:

E|-----------------------8---8-8---------------------------------------------|
B|-----------------------8---8-8---------------------------------------------|
G|--6~-6-6-6-6-6-6--5~-------------------------------------------------------| X3
D|--6~-6-6-6-6-6-6--5~-5-----------------------------------------------------|
A|--4~-4-4-4-4-4-4--3~-3---8-------------------------------------------------|
E|---------------------------------------------------------------------------|

E|---6-6---6-6---6-6---6-6---6-6-6-------------------------------------------|
B|---6-6---6-6---6-6---6-6---6-6-6-------------------------------------------|
G|---------------------------------------------------------------------------|
D|---------------------------------------------------------------------------|
A|---------------------------------------------------------------------------|
E|---------------------------------------------------------------------------|

E|-----------------------8---8-8---------------------------------------------|
B|-----------------------8---8-8---------------------------------------------|
G|--6~-6-6-6-6-6-6--5~-------------------------------------------------------|
D|--6~-6-6-6-6-6-6--5~-5-----------------------------------------------------|
A|--4~-4-4-4-4-4-4--3~-3---8-------------------------------------------------|
E|---------------------------------------------------------------------------|

E|---------------------------------------------------------------------------|
B|----------------------11-8-------------------------------------------------|
G|--6~-6-6-6-6-6-6--5~-------10-8--------------------------------------------|
D|--6~-6-6-6-6-6-6--5~------------10-8---------------------------------------|
A|--4~-4-4-4-4-4-4--3~-------------------------------------------------------|
E|---------------------------------------------------------------------------|

E|-----------------------8---8-8---------------------------------------------|
B|-----------------------8---8-8---------------------------------------------|
G|--6~-6-6-6-6-6-6--5~-------------------------------------------------------|
D|--6~-6-6-6-6-6-6--5~-5-----------------------------------------------------|
A|--4~-4-4-4-4-4-4--3~-3---8-------------------------------------------------|
E|---------------------------------------------------------------------------|

E|---6-6---6-6---6-6---6-6---6-6-6-------------------------------------------|
B|---6-6---6-6---6-6---6-6---6-6-6-------------------------------------------|
G|---------------------------------------------------------------------------|
D|---------------------------------------------------------------------------|
A|---------------------------------------------------------------------------|
E|---------------------------------------------------------------------------|

OUTRO:

E|---------------------------------------------------------------------------|
B|---------------------------------------------------------------------------|
G|---/5-3--------------/5-3--------------/5-3--------------/5-3--------------|
D|--------53-1-3-1---------5/3-1-3-1---------5/3-1-3-1---------5/3-1-3-1----|
A|---------------------------------------------------------------------------|
E|---------------------------------------------------------------------------|

E|---------------------------------------------------------------------------|
B|---------------------------------------------------------------------------|
G|----------------/5-3-------------------------------------------------------|
D|------------1--------53-1-3-1---------------------------------------------|
A|--3-1---1-3---3------------------3-1~---1---1---1-2-3-3-3~-----------------|
E|------3-------------------------------3---3---3----------------------------|

E|-------3-5-3----------------3-5-3------------------------------------------|
B|-------4-6-4----------------4-6-4------------------------------------------|
G|-----------------5-5~-----------------5-5~---------------------------------| X6
D|--5-5------------5-5~---5-5-----------5-5~---------------------------------|
A|--3-3--------3-3--------3-3-------3-3--------------------------------------|
E|---------------------------------------------------------------------------|

E|---------------------------------------------------------------------------|
B|---------------------------------------------------------------------------|
G|---/5-3--------------/5-3--------------/5-3--------------------------------|
D|--------53-1-3-1---------5/3-1-3-1---------5/3-1-3-1----------8-----------|
A|-------------------------------------------------------5---8---7-----------|
E|-------------------------------------------------------3---6---8-----------|
////////////////// ¿Te Animas? Sube una canción a este sitio. //////////////////

ACORDES PARA GUITARRA

PIANO UKELELE


COMENTARIOS

Aún no hay comentarios,

¡escribe el primero!

Escribe una pregunta, duda o comentario sobre esta canción, te responderemos a la brevedad.

Las canciones más tocadas de Vintage Trouble

Toca una Canción al Azar de Vintage Trouble

06.52


Nuestro servidor se demoró 0.07 segundos en generar esta página. Eso fue realmente muy rápido!