Quiero volver a las raíces (Viticus) Acordes

Álbum: Viticus III (2008)



Más Versiones de esta Canción | Ver. 2 |

Cambiar Cifrado: |SOL > G| - |G > SOL|

BAJAR UN TONO BAJAR UN SEMI-TONO SUBIR UN SEMI-TONO SUBIR UN TONO PARTIR PANTALLA EN VERTICAL PARTIR PANTALLA EN VERTICAL ¡Ayuda!
-A
+A
Intro: E      A B E

Riff x2 sobre: E A E B E A A B E

E
Si tu me encuentras mirando ido

es que no me encuentro
A B E
no me encuentro yo.-


El río baja y a veces sube
es como el vino,
vos me comprendés.-

Riff

Como esa tarde en que viniste
y luego nunca
volviste a aparecer.-

El río baja y a veces sube
es como el vino,
vos me comprendés.-

A E7/G#
Caminando por un viejo país,
A subida(E5 F#5 G5 G#5 A)
hay mucho para elegir,
A E7/G#
pero depende de lo que busqués
F# B
dijo alguien por ahí.-

E A E A
Quiero volver a las raíces
E A A B E
donde todo comenzó.
Quiero volver a las raíces
donde todo comenzó.-

Solo: E A B E


Caminando por un viejo país...

Quiero volver a las raíces
donde todo comenzó.
Quiero volver a las raíces
donde todo comenzó.-

Quiero volver a las raíces...

Quiero volver a las raíces...

Riff



RIFF:
E A E B

E-12-9----------------------/-12-9------------------------/
B------12-9---------------10/------12-9-------------------/
G-----------^11-9---9---9---/-----------^11-9----9---9----/
D----------------11---11----/-----------------11---11--9--/
A---------------------------/-----------------------------/
E---------------------------/-----------------------------/

E A A B E

E-12-9----------------------/-------------------/
B------12-9---------------10/-10-12-------------/
G-----------^11-9---9----9--/-------9-----------/
D-----------------11--11----/-------------------/
A---------------------------/-------------------/
E---------------------------/-------------------/


^: Estirar un tono.



¡Siguiente!

Toca una Canción al Azar de Viticus
E
A
B
F#5
G5
G#5
F#




Aún no hay comentarios, ¡escribe el primero!

Escribe un comentario o pregunta sobre esta canción:




Más canciones de Viticus

No me fue muy bien en el extranjero
Esta noche hay rock and roll
Voy a pasar a buscarte
Rumbo
Fugitiva
Dr. Dr.
Por qué te vas?
Humano
Utopía
Sordidez
Fuego y Destrucción
Sé que hay una chica
Quiero volver a las raíces
La perra de mi mujer
Nunca pares de gritar
El Gallo
Mi nuevo Chevrolet
Ser una roca y no poder rodar
Al infierno por la puerta grande
No pasa nada en esta ciudad

Siguiente


ABRIR ACORDES

Nuestro servidor se demoró 0.06 segundos en generar esta página. Eso fue realmente muy rápido!